Song name
# A B C D E F G H I J K L M N O P Q R S T U V W X Y Z

Shuggie Otis - Strawberry Letter 23 tab

Strawberry Letter 23 (solo) - Shuggie Otis



I can't find another tab for this solo, so I made my own. Hopefully someone else finds 
this useful.
Turn up the analog delay and phaser and enjoy!

|---------------------------||---------------------------||
|--15-15p14----15-15p14-----||-15-15p13----15-15p13------||
|----------14----------14--.||.--------14----------14---.||
|------------16----------16.||.----------15----------15-.||
|---------------------------||---------------------------||
|---------------------------||---------------------------||



|---------------------------||---------------------------||
|--15-15p12----15-15p12-----||-15-15p13----15-15p13------||
|----------12----------12--.||.--------14----------14---.||
|------------14----------14.||.----------15----------15-.||
|---------------------------||---------------------------||
|---------------------------||---------------------------||
Tap to rate this tab
# A B C D E F G H I J K L M N O P Q R S T U V W X Y Z