Song name
# A B C D E F G H I J K L M N O P Q R S T U V W X Y Z

Shuggie Otis - Strawberry Letter 23 tab

I always loved this song, especially the solo part. Although it goes by kinda quick and 
there are some effects on the guitar you can hear it nicely.

Pretty impressive guitar lick for 1977. Take it slow at first and build up to speed with 
the studio recording.

Shuggie Otis - Strawberry Letter 23 Solo


|--12-12--10----------------||--13-13--10----------------||
|-----------12--------------||-----------11-10-----------||
|-------------12-----------.||.-------------------------.||
|--------------------------.||.-------------------------.||
|---------------------------||---------------------------||
|---------------------------||---------------------------||

|--13-13--12----------------||--11-11--8-----------------||
|-----------13--------------||----------11-9-------------||
|-------------12-----------.||.-------------------------.||
|--------------------------.||.-------------------------.||
|---------------------------||---------------------------||
|---------------------------||---------------------------||

Enjoy!
Tap to rate this tab
# A B C D E F G H I J K L M N O P Q R S T U V W X Y Z