Song name
# A B C D E F G H I J K L M N O P Q R S T U V W X Y Z

Shwayze - Buzzin tab

Buzzin - By: Shwayze

Great and easy song to learn! You can also see the video that explains
it in Youtube.com as well

URL:  http://youtube.com/watch?v=JXyChkQt7l4

PLEASE COMMENT!

TAB THROUGH OUT THE WHOLE SONG

PART "A"
       (C)       (D)        (Em)

e-------0--------2------0--------0---|
B-------1--------3------0--------0---|
G-------0--------2------0--------0---|     (3X)
D-------2-----0--0------2--------2---|
A---3---3---3----0------2--------2---|
E-------x--------2---0--0--0--0--0---|


PART "B"

       (C)        (D)    (G)     (Em)

e-------0--------2------3--------0---|
B-------1--------3------3--------0---|
G-------0--------2------0--------0---|
D-------2-----0--0------0--------2---|
A---3---3---3----0------2--------2---|
E-------x--------2---3--3--3--0--0---|

PART "A" AGAIN!

GOES ON THROUGH WHOLE SONG!! THERE ARE THOUGH
SOME STOPS BUT YOU'LL FIGURE THEM OUT ONCE YOU LISTEN TO THE SONG

There it is! Enjoy!
Gerry Moran
Tap to rate this tab
# A B C D E F G H I J K L M N O P Q R S T U V W X Y Z