Song name
# A B C D E F G H I J K L M N O P Q R S T U V W X Y Z

Shwayze - Perfect For Me tab

Regular tuning
you can bar everything x's are muted
this just repeats


----------------x-----------------x-----------------x----------------x--------|
----------------x-----------------x-----------------x----------------x--------|
----------------x-----------------7-----------------9----------------x--------|
----------------5-----------------7-----------------9----------------9--------|
----------------5--------5--5-----5--------7--7-----7----------------9--------|
-------3--3-----3-------------------------------------------7--7-----7--------|


----------------x-----------------x-----x----x----x----x-----------------------|
----------------x-----------------x-----x----x----x----x-----------------------|
----------------x-----------------x-----7----7----7----7-----------------------|
----------------10----------------5-----7----7----7----7-----------------------|
----------------10----------------5-----5----5----5----5-----------------------|
-------8--8-----8--------3--3-----3--------------------------------------------|
Tap to rate this tab
 
# A B C D E F G H I J K L M N O P Q R S T U V W X Y Z