Song name
# A B C D E F G H I J K L M N O P Q R S T U V W X Y Z

Shwayze - Buzzin tab

Easiest song ever. listen to it first. standard tuning. no capo.

Start off with this
      C     D     Em
e|----0-----2-----0-0000| x2
B|----1-----3-----0-0000|
G|----0-----2-----0-0000|
D|----2--0--0-----2-2222|
A|-3--3-----x--2--2-2222|
E|----x-----x-----0-0000|

Third time around id a little different
      C     D     G     Em
e|----0-----2-----3-----0-| 
B|----1-----3-----0-----0-|
G|----0-----2-----0-----0-|
D|----2--0--0-----0-----2-|
A|-3--3-----x-----2--2--2-|
E|----x-----x--3--3-----0-|

Back to original position
      C     D     Em
e|----0-----2-----0-0000| 
B|----1-----3-----0-0000|
G|----0-----2-----0-0000|
D|----2--0--0-----2-2222|
A|-3--3-----x--2--2-2222|
E|----x-----x-----0-0000|

Just figure out the strum pattern and play this over and over through out the 
whole song. Have fun!!
Tap to rate this tab
 
# A B C D E F G H I J K L M N O P Q R S T U V W X Y Z