Song name
# A B C D E F G H I J K L M N O P Q R S T U V W X Y Z

Shwayze - Island In The Sun tab

Title: Island In the Sun (Intro)
Artist: Shwayze & Cisco
Album: Island In the Sun
Tabbed by: cjgehr94

-------------------------------|
----8---10---7---5---8-7-5-----|
--7---7----7---5---5-----------|  (x3)
---------------------------7---|
-------------------------------|
-------------------------------|


---------------------7---------|
----8---10---7-------8---------|
--7---7----7-------5-----------|
---------------5h7-------------|
-------------------------------|
-------------------------------|
Tap to rate this tab
 
# A B C D E F G H I J K L M N O P Q R S T U V W X Y Z