Song name
# A B C D E F G H I J K L M N O P Q R S T U V W X Y Z

Shy Boys - Is This Who You Are tab

https://www.facebook.com/shyboys

http://pitchfork.com/reviews/albums/18917-shy-boys-shy-boys/

-------------------------------------------------------------------------------
                             Is This Who You Are - Shy Boys
-------------------------------------------------------------------------------
Tabbed by: James

Tuning: Standard

There are only really two parts to this song, the intro/outro chords and the chorus riff.

e|-----------------------------------------------------------------------------|
b|-----------------------------------------------------------------------------|
g|-----------------------------------------------------------------------------|
d|---5--555-555-555-55-----8--888-888-888-88-----------------------------------|
a|---5--555-555-555-55-----8--888-888-888-88-----------------------------------|
e|---3--333-333-333-33-----6--666-666-666-66-----------------------------------|

e|-----------------------------------------------------------------------------|
b|-----------------------------------------------------------------------------|
g|-----------------------------------------------------------------------------|
d|-----------------------------------------------------------------------------|
a|--0---02---4---2---0---22----------------------------------------------------|
e|----------------------------4---2---4----------------------------------------|


************************************

| /   slide up
| \   slide down
| h   hammer-on
| p   pull-off
| ~   vibrato
| +   harmonic
| x   Mute note
| b   Bend
| pb  Pre-bend
| br  Bend release
| pbr Pre-bend release
| brb Bend release bend

************************************
Tap to rate this tab
# A B C D E F G H I J K L M N O P Q R S T U V W X Y Z