Song name
# A B C D E F G H I J K L M N O P Q R S T U V W X Y Z

Shy Nobleman - Picture On The Wall tab

picture on the wall/shy nobleman

intro:
    E
e[----------------{----}
B[----------------{----}
G[----1---1-------{----}
D[-------------2--{-*4-}
A[------2---2-----{----}
E[--0-------------{----}


veres:
    E                    A                    D
e[----------------{----}---------------{----}---2---2----2-{----}
B[----------------{----}----2---2----2-{----}--------------{----}
G[----1---1-------{----}---------------{----}-----2---2----{----}
D[-------------2--{-*4-}------2---2----{-*2-}-0------------{-*2-}
A[------2---2-----{----}-0-------------{----}--------------{----}
E[--0-------------(----}---------------{----}--------------{----}
"there's..."


chorus:
   C#M    B     C     D   D#
e[--4-----2-----3-----5---6--|
B[--5-----4-----5-----7---8--|
G[--6-----4-----5-----7---8--|
D[--6-----4-----5-----7---8--|
A[--4-----2-----3-----5---6--|
E[---------------------------|
"in the winter..."


bridge:
    C#    B     A     B     G#
e[--4-----2-----0-----2-----4--|
B[--6-----4-----2-----4-----4--|
G[--6-----4-----2-----4-----5--|
D[--6-----4-----2-----4-----6--|
A[--4-----2-----0-----2-----6--|
E[--------------------------4--|

index:
intro*2
veres*2
chorus*1
veres*2
chorus*1
bridge*2
veres*3


maor blumenthal
ICQ:191809050
Tap to rate this tab
# A B C D E F G H I J K L M N O P Q R S T U V W X Y Z