Song name
# A B C D E F G H I J K L M N O P Q R S T U V W X Y Z

Shy Nobleman - Baby In The Rain tab

baby in the rain/shy nobleman

intro:
e-----3-------------3---------{----}
B-----3-------------3---------{----}
G-----4-------------4---------{----}
D-----5-------------5---------{-*2-}
A--5--5---2-3-5--5--5--5-4-3--{----}
E--3--3----------3--3---------{----}

veres:
G C Eb F   { *2 }

chorus:
G# CM G#M CM
G# CM Bb F








CHORDSKEY
------------------------
- G  C  Eb F  G# CM Bb -
- 3  3  6  1  4  3  1  -
- 3  5  8  1  4  4  3  -
- 4  5  8  2  5  5  3  -
- 5  5  8  3  6  5  3  -
- 5  3  6  3  6  3  1  -
- 3        1  4        -
------------------------


maor blumenthal
ICQ:191809050

Tap to rate this tab
# A B C D E F G H I J K L M N O P Q R S T U V W X Y Z