Guitaretab - guitar tabs
Song name
# A B C D E F G H I J K L M N O P Q R S T U V W X Y Z

Sia - Breathe Me tab

First tab. It's prettymuch like 99% right, you could play it along with the song
and it'd sound right.

[ Tab from: http://www.guitaretab.com/s/sia/180625.html ]
-------------------------------------------12----12---|
-----13----13-----13----13----13----13-----13----13---|
--14----14-----14----14----12----12-----12----12------|
------------------------------------------------------|
------------------------------------------------------|
------------------------------------------------------|

-----12----12----15----15----15-----15----15----15----|
-----13----13----13----13----13-----13----------------|
--12----12----12----12----12-----12----12----12-------|
------------------------------------------------------|
------------------------------------------------------|
------------------------------------------------------|
Related for Breathe Me tab
Advertisement will be closed in 10 seconds