Song name
# A B C D E F G H I J K L M N O P Q R S T U V W X Y Z

Sia - Breathe Me tab

Breathe Me - Sia
-----------------------------------------------------------------------------

Tabbed by: doeadear
Tuning:standard

This is my first tab and I think it sounds alright.
You can play the same two lines throughout the
whole song. There are some slight variations toward the middle of the
song but I can't quite get them. please add them if you can.
Also, one last thing, the timing is quite tricky when the chorus sets
in so maybe my tab needs to be slightly altered at that point.
anyway see what you think:


V1:
Help, I have done it again
I have been here many times before
I hurt myself again today
e|---------------------------0---0---0----0--3---3---0---0---0---0-----:
B|---1---1---1---1---1---1---1---1---1---1---1---1---------------------:
G|-2---2---2---2---0---0---0---0---0---0---0---0---0---0---0---0-------:
D|---------------------------------------------------------------------:
A|---------------------------------------------------------------------:
E|---------------------------------------------------------------------:

And, the worst part is there's no-one else to blame
e|---------------------------0---0---0---0-----------------------------|
B|---1---1---1---1---1---1---1---1---1---1---------0----1--------------|
G|-2---2---2---2---0---0---0---0---0---0------2------------------------|
D|-------------------------------------------------0----2--------------|
A|--------------------------------------------3------------------------|
E|---------------------------------------------------------------------|

Ch:
Be my friend, Hold me
wrap me up, Unfold me
I am small, and needy
e|---------------------------0---0---0---0---3---3---0---0---0---0-----:
B|---1---1---1---1---1---1---1---1---1---1---1---1---------------------:
G|-2---2---2---2---0---0---0---0---0---0---0---0---0---0---0---0-------:
D|---------------------------------------------------------------------:
A|---------------------------------------------------------------------:
E|---------------------------------------------------------------------:

Warm me up, And breathe me
e|---------------------------0---0---0---0---3---3---------------------|
B|---1---1---1---1---1---1---1---1---1---1---1---1---------------------|
G|-2---2---2---2---0---0---0---0---0---0---0---0-----------------------|
D|---------------------------------------------------------------------|
A|---------------------------------------------------------------------|
E|---------------------------------------------------------------------|

V2:
Ouch
I have lost myself again
Lost myself and I am nowhere to be found,
Yeah I think that I might break
Lost myself again and I feel unsafe

Ch:
Be my friend
Hold me, wrap me up
Unfold me
I am small
and needy
Warm me up
And breathe me
Tap to rate this tab
 
# A B C D E F G H I J K L M N O P Q R S T U V W X Y Z