Sia - Clap Your Hands tab

Sia (Furler) - Clap Your Hands
from We Are Born (2010)


Intro/bridge part:

F          G         C        Am
---5----5----7----7----8---8------12------12---|
-6----6----8----8----8---8----13------13-------|
--5-5--5-5--7-7--7-7--9-9-9-9---14--14--14--14-|
-----------------------------------------------|
-----------------------------------------------|
-----------------------------------------------|

F          G         C        E
---5----5----7----7----8---8------12------12---|
-6----6----8----8----8---8----12------12-------|
--5-5--5-5--7-7--7-7--9-9-9-9---13--13--13--13-|
-----------------------------------------------|
-----------------------------------------------|
-----------------------------------------------|


Am
Well I've been
          F
Neglecting the good things
 F
(oh oh woah)
Am
Well I've been
Am      F
desiring the good things
F - G
Owooooh
Am
I'm biting
Am
the lighting
F
The good things

(oh oh woah)
Am
I'm minding what to see
F
The good things
F - G
Owooooh


Bridge:

F        G            C
Shake(?) me out of my misery
       Am
(oh oh woah)

      F          G
On a night like this..
            C
Get out of misery
 E
(oh oh oh)


Chorus:
           Am
Clap your hands
           G
Clap your hands
                                      C
Turn the lights on my nights this is life
                       F
And we only get once chance


Clap your Hands
Clap Your Hands
Come on dance
Take a chance on romance
We only get one shot at this


Clap your Hands
Clap Your Hands
Turn the lights on my nights
This is life
And we only get one chance


Clap your Hands
Clap Your Hands
Come on dance
Take a chance on romance
We only get one shot at this

Ooh... clap your hands

I'm trying to fly in the good things
oh oh woh
I'm finding this might be a good thing

(oh oh woah woah)

Shake me
out of my misery
(oh oh oh)
On a night like this..
Get out of misery
(oh oh oh)

Etc.
Tap to rate this tab
 
# A B C D E F G H I J K L M N O P Q R S T U V W X Y Z