Song name
# A B C D E F G H I J K L M N O P Q R S T U V W X Y Z

Sia - Moon tab

SONG:   MOON
ARTIST: SIA
TUNING: STANDARD

NOTES:  THIS IS GREAT TAB FOR THIS SONG. NOTICE THE LYRICS ARE WRITTEN AT THE PRECISE
TIME THE TAB NUMBERS ARE WRITTEN ON THE LINES, SO YOU CAN SING ALONG AT THE CORRECT TIME
WITH THE MUSIC. I HAVE SIMPLIFIED SOME OF THE SONG TO MAKE IT EASIER TO PLAY AND SING 
ALONG, BUT IT STILL REMAINS VERY ACCURATE TO THE ACTUAL SONG. YOU WONT FIND BETTER TAB FOR
THIS SONG ANYWHERE ONLINE! I LEARNED THIS SONG BY EAR BECAUSE I AM A SUCKER FOR MY 
GIRLFRIEND =)


( )     = WORDS INSIDE PARENTHESIS INDICATE NOTES THAT ARE NOT LYRICS
...     = SUSTAIN THE VOICE (LONG DRAWN OUT SINGING)
(HAMMER)= HAMMER ON (EXAMPLE: 4*6 MEANS HAMMER FROM 4 TO 6)

NOTE    - You Can Play B min starting on the Low E string instead of playing B min on
the A string, but I like how it sounds better on the A string so I tabbed it that way.

E--------------------------------------------------------------------|
B--------------------------------------------------------------------|
G--------------------------------------------------------------------|
D--------------------------------------------------------------------|
A-----4--------------7----------------2------------------------------|
E-----5--------------9----------------4------------------------------|

      (INTRO)

E--------------------------------------------------------------------|
B--------------------------------------------------------------------|
G--------------------------------------------------------------------|
D--------------------------------------------------------------------|
A-----4--------------7----------------2------------------------------|
E-----5--------------9----------------4------------------------------|

      I WATCH YOU    SPIN    FROM     AFAR

E--------------------------------------------------------------------|
B--------------------------------------------------------------------|
G--------------------------------------------------------------------|
D--------------------------------------------------------------------|
A-----4--------------4-----------------------4---------2-------------|
E-----5--------------2-----------------------5---------4-------------|

      I DRINK YOU    IN    AND BREATH YOU    OUT

E--------------------------------------------------------------------|
B--------------------------------------------------------------------|
G--------------------------------------------------------------------|
D--------------------------------------------------------------------|
A-----4-------7-------------2----------------------------------------|
E-----5-------9-------------4----------------------------------------|

      IM CAMO-FLAGED BY THE TIMELINE

E--------------------------------------------------------------------|
B--------------------------------------------------------------------|
G--------------------------------------------------------------------|
D--------------------------------------------------------------------|
A-----4-------4---------------4--------2-----------------------------|
E-----5-------2---------------5--------4-----------------------------|

      IM CAMO-FLAGED WHEN THE SUN SHINES


E------------2-------------------------5------------5---5---5--------|
B------------3------9------------------5--------------5---5----------|
G------------4------9------------------6-----------------------------|
D--------4----------9------------------7-----------------------------|
A-----2-------------7------------------7-----------------------------|
E--------------------------------------5-----------------------------|

                TWO SHIPS PASSING   IN THE NIGHT
      (Bm)          (Emaj)             (Amaj)

E------------2-------------------------5------------4----------------|
B------------3------9------------------5------------4----------------|
G------------4------9------------------6------------5----------------|
D--------4----------9------------------7------------6----------------|
A-----2-------------7------------------7------------6----------------|
E--------------------------------------5------------4----------------|

               TWO LIPS PRESSING     GROUND THE TIDES...
      (Bm)          (Emaj)             (Amaj)      (Ab maj)

E----4---------------4-----------------------------------------------|
B----5---------------4-------------------------------------------4---|
G----6---------------4--------------------4---4------------------4---|
D----6---------------6------------------6---6---6--4-------------4---|
A--4-----------------6-------------------------------7--6--4 * 6-----|
E--------------------4-------------------------------------(HAMMER)--|

       I BELIEVE THE WORLD IT SPINS FOR YOU...
    (Db min)         (Ab min)

E----4---------------4-----------------------------------------------|
B----5---------------4-------------------------------------------4---|
G----6---------------4--------------------4---4------------------4---|
D----6---------------6------------------6---6---6--4-------------4---|
A--4-----------------6-------------------------------7--6--4 * 6-----|
E--------------------4-------------------------------------(HAMMER)--|

       WE WILL NEVER BE   I AM THE      MOON...

E----4---------------4-----------------------------------------------|
B----5---------------4-------------------------------------------4---|
G----6---------------4--------------------4---4------------------4---|
D----6---------------6------------------6---6---6--4-------------4---|
A--4-----------------6-------------------------------7--6--4 * 6-----|
E--------------------4-------------------------------------(HAMMER)--|

       I BELIEVE THE WORLD IT SPINS FOR YOU...

E----4---------------4-----------------------------------------------|
B----5---------------4-------------------------------------------4---|
G----6---------------4--------------------4---4------------------4---|
D----6---------------6------------------6---6---6--4-------------4---|
A--4-----------------6-------------------------------7--6--4 * 6-----|
E--------------------4-------------------------------------(HAMMER)--|

       WE WILL NEVER BE   I AM THE      MOON...

E--------------------------------------------------------------------|
B--------------------------------------------------------------------|
G--------------------------------------------------------------------|
D--------------------------------------------------------------------|
A--4---------4----2------------4-----4-------4-----2-----------------|
E--2---------5----4------------2-----5-------5-----4-----------------|

   I LONG TO BE A PART         I ISO-LATE MY HEART

E--------------------------------------------------------------------|
B--------------------------------------------------------------------|
G--------------------------------------------------------------------|
D--------------------------------------------------------------------|
A--4--------------4-----2------------4---------4-------4------2------|
E--2--------------5-----4------------2---------5-------5------4------|

   YOUVE DRAWN ME INTO YOUR WORLD    NOW I TOO SPIN LIMBLESS...

E------------2-------------------------5------------5---5---5--------|
B------------3------9------------------5--------------5---5----------|
G------------4------9------------------6-----------------------------|
D--------4----------9------------------7-----------------------------|
A-----2-------------7------------------7-----------------------------|
E--------------------------------------5-----------------------------|

                ONE HAND CLAPPING IN THE NIGHT...

E------------2-------------------------5------------4----------------|
B------------3------9------------------5------------4----------------|
G------------4------9------------------6------------5----------------|
D--------4----------9------------------7------------6----------------|
A-----2-------------7------------------7------------6----------------|
E--------------------------------------5------------4----------------|

               I STAND SPANNING AT YOUR   DISTANT   WINGS...

E----4---------------4-----------------------------------------------|
B----5---------------4-------------------------------------------4---|
G----6---------------4--------------------4---4------------------4---|
D----6---------------6------------------6---6---6--4-------------4---|
A--4-----------------6-------------------------------7--6--4 * 6-----|
E--------------------4-------------------------------------(HAMMER)--|

       I BELIEVE THE WORLD IT SPINS FOR YOU...

E----4---------------4-----------------------------------------------|
B----5---------------4-------------------------------------------4---|
G----6---------------4--------------------4---4------------------4---|
D----6---------------6------------------6---6---6--4-------------4---|
A--4-----------------6-------------------------------7--6--4 * 6-----|
E--------------------4-------------------------------------(HAMMER)--|

       WE WILL NEVER BE   I AM THE      MOON...

E----4---------------4-----------------------------------------------|
B----5---------------4-------------------------------------------4---|
G----6---------------4--------------------4---4------------------4---|
D----6---------------6------------------6---6---6--4-------------4---|
A--4-----------------6-------------------------------7--6--4 * 6-----|
E--------------------4-------------------------------------(HAMMER)--|

       I BELIEVE THE WORLD IT SPINS FOR YOU...

E----4---------------4-----------------------------------------------|
B----5---------------4-------------------------------------------4---|
G----6---------------4--------------------4---4------------------4---|
D----6---------------6------------------6---6---6--4-------------4---|
A--4-----------------6-------------------------------7--6--4 * 6-----|
E--------------------4-------------------------------------(HAMMER)--|

       WE WILL NEVER BE   I AM THE      MOON...

E----4---------------4-----------------------------------------------|
B----5---------------4-------------------------------------------4---|
G----6---------------4--------------------4---4------------------4---|
D----6---------------6------------------6---6---6--4-------------4---|
A--4-----------------6-------------------------------7--6--4 * 6-----|
E--------------------4-------------------------------------(HAMMER)--|

       I BELIEVE THE WORLD IT SPINS FOR YOU...

E----4---------------4-----------------------------------------------|
B----5---------------4-------------------------------------------4---|
G----6---------------4--------------------4---4------------------4---|
D----6---------------6------------------6---6---6--4-------------4---|
A--4-----------------6-------------------------------7--6--4 * 6-----|
E--------------------4-------------------------------------(HAMMER)--|

       WE WILL NEVER BE   I AM THE      MOON...

E----X---------------X-----------------------------------------------|
B----7---------------4-----------------------------------------------|
G----6---------------4-----------------------------------------------|
D----6---------------6-----------------------------------------------|
A----4---------------6-----------------------------------------------|
E----X---------------4-----------------------------------------------|

     (END THE SONG WITH THESE TWO CHORDS - LET THEM RING OUT SLOWLY)
Tap to rate this tab
 
# A B C D E F G H I J K L M N O P Q R S T U V W X Y Z