Song name
# A B C D E F G H I J K L M N O P Q R S T U V W X Y Z

Sia - We Are Born tab

-------------------------------------------------------------------------------
                             The Fight  Sia
-------------------------------------------------------------------------------
Tabbed by:mpsya
Email:marnykino@gmail.com

Tuning:
EADGBe

Verse:

Part 1: Palm muted. Repeat a lot (the bits on the G and A strings get swapped around occasionally)
e|---------------------------------------------------------------------------|
B|---------------------------------------------------------------------------|
G|----------------x-x-6-6-4-6-4----------------------------------------------|
D|-x-x-6-6-4-6-4----------------- x-x-6-6-4-6-4------------------------------|
A|-----------------------------------------------x-x-4-4-2-4-----------------|
E|---------------------------------------------------------------------------|


Part 2:
e|-----7-----------11----------10----------9---------------------------------|
B|---9---9------12----12-----10---10----10---9-------------------------------|
G|-9--------/11-----------11----------9--------------------------------------|
D|---------------------------------------------------------------------------|
A|---------------------------------------------------------------------------|
E|---------------------------------------------------------------------------|



Chorus:
e|-----7-----------11----------10----------------17--------------------------|
B|---9---9------12----12-----10---10------14---------------------------------|
G|-9--------/11-----------11----------/14----/18-----------------------------|
D|---------------------------------------------------------------------------|
A|---------------------------------------------------------------------------|
E|---------------------------------------------------------------------------|

                                   (Not 100% sure about the 11 to 9 pull off)
e|---------------------------------------------------------------------------|
B|---------------------------------------------------------------------------|
G|-x-x-x-x-4--x-x-9-9--x-x-x-x-4--x-x-9-11p9---------------------------------|
D|-x-x-x-x-4--x-x-9-9--x-x-x-x-4--x-x-9-9--9---------------------------------|
A|---------------------------------------------------------------------------|
E|---------------------------------------------------------------------------|

e|-----7-----------11----------10----------------17--------------------------|
B|---9---9------12----12-----10---10------14---------------------------------|
G|-9--------/11-----------11----------/14----/18-----------------------------|
D|---------------------------------------------------------------------------|
A|---------------------------------------------------------------------------|
E|---------------------------------------------------------------------------|


e|-16-16-16-16-16-16-x-x-16-16--16-16-16-16-16-16-16-16-14-12----------------|
B|-16-16-16-16-16-16-x-x-17-17--16-16-16-16-16-17-17-16-14-12----------------|
G|---------------------------------------------------------------------------|
D|---------------------------------------------------------------------------|
A|---------------------------------------------------------------------------|
E|---------------------------------------------------------------------------|


Middle-8:
Not much guitar going on here but the bass and piano play the notes below. If you want 
to play it as chords its just C#m, F, E, A, C#m, B, F# four times.
e|---------------------------------------------------------------------------|
B|---------------------------------------------------------------------------|
G|---------------------------------------------------------------------------|
D|---------------------------------------------------------------------------|
A|-4--9-7----4-2------Repeat x 4---------------------------------------------|
E|--------5------2-----------------------------------------------------------|
Tap to rate this tab
# A B C D E F G H I J K L M N O P Q R S T U V W X Y Z