Song name
# A B C D E F G H I J K L M N O P Q R S T U V W X Y Z

Sia - Destiny tab

Sia - Destiny
Notes: Live cover of her work with Zero 7

Verse

 Csus2          EbM7                    Ab(7)   Gm(7)   EbM7    
|---------------|--------------3----|   |----------------------|
|-----3------3--|--------3-------3--|   |-8-----7-------3------|
|---5--5--------|----3-----3-------3|   |-8-----7-------3------|
|--5-5----3h5-5-|--5--(5)----5------|   |-10----8-------5------|
|-3-------------|6------------------|   |-11----10------6------|
|---------------|-------------------|   |----------------------|
Random fills are used here too.         Sometimes arpeggiated (Root then 3rd & 5th) 


2 different verse Fills:
 Csus2                  EbM7                    
|----------------|      |---------------3----|
|-------3-----3--|      |---------3-------3--|
|-----5--5-------|      |-----3-----3-------3|
|--3h5-5---3h5-5-|      |-3h5--(5)----5------|
|-3--------------|      |6-------------------|
|----------------|      |--------------------|


Chorus          Ending (Cello / Vocal Harmony)

|-------------| |-------------------------------------|
|-6--6--6--5--| |----------------------(13)b14~~~b13~~|
|-5--5--5--5--| |--------12-10--13-12-----------------|
|-------------| |-11-10-------------------------------|
|-6--5--4--3--| |-------------------------------------|
|-------------| |-------------------------------------|
Tap to rate this tab
 
# A B C D E F G H I J K L M N O P Q R S T U V W X Y Z