Song name
# A B C D E F G H I J K L M N O P Q R S T U V W X Y Z

Siakol - Laklak tab

Tabbed by:rudz
Email:rudz1011
Tuning:

e|-----------------------------------------------------------------------|
B|-----------------------------------------------------------------------|
G|-----------------------------------------------------------------------|
D|---4---4---4---4--4--4-------------------------------------------------|
A|---4---4---4---4--4--4-------------------------------------------------|
E|-2---2---2---2---2--2--------------------------------------------------|

e|-------------------------------------------------------------------------|
B|-------------------------------------------------------------------------|
G|---4---------------------------------------------------------------------|
D|---4--2------------------------------------------------------------------|
A|-2----2------------------------------------------------------------------|
E|-------------------------------------------------------------------------|
Tap to rate this tab
# A B C D E F G H I J K L M N O P Q R S T U V W X Y Z