Guitaretab - guitar tabs
Song name
# A B C D E F G H I J K L M N O P Q R S T U V W X Y Z

Siakol - Panaginip tab

song: panaginip by: siakol
Tabs by: alay
album: sa pag-ikot ng mundo
any comments e-mail me @: alay_slash@yahoo.com

Solo:

e|-------------------------------9-10-9-12-13(b)-12-10-9-10-10h9--9-|
B|-12/14-12/14-12/14-12-10--10-12-------------------------------12--|
G|------------------------11----------------------------------------|
D|------------------------------------------------------------------|
A|------------------------------------------------------------------|
E|------------------------------------------------------------------|

e|----------------------9-10-9-10/12-10-9---------------------------|
B|-12-12h10--10-12-10h12-----------------12-10-9-10-10/12-10-9h10p9-|
G|---------11-------------------------------------------------------|
D|------------------------------------------------------------------|
A|------------------------------------------------------------------|
E|------------------------------------------------------------------|

e|-------------------------------------------------9-10-9-----------|
B|--------------------------------------------10h12-------12-10-----|
G|-11-9-7-6-7-7h6--7-9-9h7--7-9-9h7------10h12----------------------|
D|---------------9--------9--------9-7------------------------------|
A|------------------------------------------------------------------|
E|------------------------------------------------------------------|
[ Tab from: http://www.guitaretab.com/s/siakol/139615.html ]
e|-12-12/14-12-10-9-10-9-----------------10-12-12-12-10-9-12/14-12--|
B|-----------------------12-10------10-12---------------------------|
G|-----------------------------10/11--------------------------------|
D|------------------------------------------------------------------|
A|------------------------------------------------------------------|
E|------------------------------------------------------------------|

e|-10h9---10h9--------------9-10-10/12-12-12-----9-10-9-9-9-9------|
B|------12----12-12h10-10h12----------------10h12------------------|
G|-----------------------------------------------------------------|
D|-----------------------------------------------------------------|
A|-----------------------------------------------------------------|
E|-----------------------------------------------------------------|

e|------9-10-10/12-10-9-10h9----------------------------------------|
B|-10h12--------------------12-10-9-10-9-7-9-9h7--9-10--------------|
G|----------------------------------------------9-------------------|
D|------------------------------------------------------------------|
A|------------------------------------------------------------------|
E|------------------------------------------------------------------|

yan lang mga pinoy easy lang yan makinig lang kayop sa solo ang ganda pang
pakinggan tune nyo ang gitara nyo kagaya ng siakol enjoy!!!



Related for Panaginip tab