Song name
# A B C D E F G H I J K L M N O P Q R S T U V W X Y Z

Siakol - Kwarto tab

Title: Kwarto
Artist: Siakol
Album: Kabilang Mundo

For any comments and Suggestion:

Text Me: 09198408399
Friendster: boybassista@yahoo.com

Tuning: Standard

       This is the new song of Siakol from their new album      
                              "Kabilang Mundo"..
                Kung may mali man,..pakicomment kaagad..tnx!

Intro 1

Bass

G-----------------------------------|
D-----------------------------------| 
A—55/-77h8----------33-33-55-77--88-|
E-----------55---11-----------------|

Intro 2: 

Bass
G----------------------------------------|
D----------------------------------------| 
A—55555-/77h8----------33-33-55-77—88-77-|
E-------------55---11--------------------|

Guitar 1:

e---00---00----000--------|
b---55~--33~--1010~--00---|
g--------------------99~--|
D-------------------------|
A-------------------------|
E-------------------------|

Verse:
Sinasariwa.

e---00---00----000--------|
b---55~--33~--1010~--00---|
g--------------------99~--|
D-------------------------|
A-------------------------|
E-------------------------|

Walang problema..
e---00---00----000--------|
b---55~--33~--1010~--00---|
g--------------------99~--|
D-------------------------|
A-------------------------|
E-------------------------|

Guitar 2(0:42)
Lungkot di papasok…
e-------8-5-----8-6--------------------------|
b---6---------6---------6~--8~-/-10^10-8-6^--|
g-5---------5---------5----------------------|
D--------------------------------------------|
A--------------------------------------------|
E--------------------------------------------|
Lungkot ay di papasok…
e-------8-5-----8-6---------------------------|
b---6---------6---------6~--8~-/-10^10-8-6h8--|
g-5---------5---------5-----------------------|
D---------------------------------------------|
A---------------------------------------------|
E---------------------------------------------|

Pinagmasmasdan…
e---00---00----000--------|
b---55~--33~--1010~--00---|
g--------------------99~--|
D-------------------------|
A-------------------------|
E-------------------------|

Walang maingay…
e---00---00----000--------|
b---55~--33~--1010~--00---|
g--------------------99~--|
D-------------------------|
A-------------------------|
E-------------------------|

Guitar 2(1:16)

e-------8-5-----8-6--------------------------|
b---6---------6---------6~--8~-/-10^10-8-6^--|
g-5---------5---------5----------------------|
D--------------------------------------------|
A--------------------------------------------|
E--------------------------------------------|

e-------8-5-----8-6---------------------------|
b---6---------6---------6~--8~-/-10^10-8-6h8--|
g-5---------5---------5-----------------------|
D---------------------------------------------|
A---------------------------------------------|
E---------------------------------------------|

Chorus:
Bawal….
e----------------------------------|
b----------------------------------|
g-7777--3333-----------5555--------|
D-7777--3333---3333----5555--------| x2
A-5555--1111---3333----3333--------|
E--------------1111----------------|

Verse:
Nakukulong…
e---00---00----000--------|
b---55~--33~--1010~--00---|
g--------------------99~--|
D-------------------------|
A-------------------------|
E-------------------------|

Walang pag-asa..
e---00---00----000--------|
b---55~--33~--1010~--00---|
g--------------------99~--|
D-------------------------|
A-------------------------|
E-------------------------|

Guitar 2(2:12)
Mas masarap mangarap…
e-------8-5-----8-6--------------------------|
b---6---------6---------6~--8~-/-10^10-8-6^--|
g-5---------5---------5----------------------|
D--------------------------------------------|
A--------------------------------------------|
E--------------------------------------------|

e-------8-5-----8-6---------------------------|
b---6---------6---------6~--8~-/-10^10-8-6h8--|
g-5---------5---------5-----------------------|
D---------------------------------------------|
A---------------------------------------------|
E---------------------------------------------|

Chorus:
Bawal….
e----------------------------------|
b----------------------------------|
g-7777--3333-----------5555--------|
D-7777--3333---3333----5555--------| x2
A-5555--1111---3333----3333--------|
E--------------1111----------------|

Adlib:

Chorus again

Sinasariwa.
e---00---00----000--------|
b---55~--33~--1010~--00---|
g--------------------99~--|
D-------------------------|
A-------------------------|
E-------------------------|
Walang problema
e---00---00----000--------|
b---55~--33~--1010~--00---|
g--------------------99~--|
D-------------------------|
A-------------------------|
E-------------------------|

Guitar 2(3:43)

e-------8-5-----8-6--------------------------|
b---6---------6---------6~--8~-/-10^10-8-6^--|
g-5---------5---------5----------------------|
D--------------------------------------------|
A--------------------------------------------|
E--------------------------------------------|

e-------8-5-----8-6---------------------------|
b---6---------6---------6~--8~-/-10^10-8-6h8--|
g-5---------5---------5-----------------------|
D---------------------------------------------|
A---------------------------------------------|
E---------------------------------------------|


For any comments and Suggestion:

Text Me: 09198408399
Friendster: boybassista@yahoo.com
Tap to rate this tab
# A B C D E F G H I J K L M N O P Q R S T U V W X Y Z