Song name
# A B C D E F G H I J K L M N O P Q R S T U V W X Y Z

Siakol - Bakit Ba tab

Hope you like this....

Little LEGEND:
         \ = slide
         ^ = bend
e|-------------------------------------------------------------------------|
B|-------5---7---8---7-8-7-8---10---8---10\12------------------------------|
G|---7---------------------------------------------------------------------|
D|-------------------------------------------------------------------------|
A|-------------------------------------------------------------------------|
E|-------------------------------------------------------------------------|

e|-------------------------------------------------------------------------|
B|---12---10---8---10---8---7-------7---8\10---10--------------------------|
G|------------------------------9------------------------------------------|
D|-------------------------------------------------------------------------|
A|-------------------------------------------------------------------------|
E|-------------------------------------------------------------------------|

e|----10---8---7---10---8---7---8---7--------------------------------------|
B|--------------------------------------10---8---7h8---8-------------------|
G|-------------------------------------------------------------------------|
D|-------------------------------------------------------------------------|
A|-------------------------------------------------------------------------|
E|-------------------------------------------------------------------------|

e|-------------------------------------------------------------------------|
B|--------5---7---8---7--------7---8\10----10------------------------------|
G|----7-------------------9------------------------------------------------|
D|-------------------------------------------------------------------------|
A|-------------------------------------------------------------------------|
E|-------------------------------------------------------------------------|

e|----10---8---7---8-------| ----10---8---7---------------|
B|---------------------8---| -----------------8\10---10---|
G|-------------------------| -----------------------------| 3x with little
D|-------------------------| -----------------------------|  modification
A|-------------------------| -----------------------------|  on last part
E|-------------------------| -----------------------------|

e|---------------------12---10---9---10---9---7---9------------------------|
B|----12^---12^-----------------------------------10-----------------------|
G|-------------------------------------------------------------------------|
D|-------------------------------------------------------------------------|
A|-------------------------------------------------------------------------|
E|-------------------------------------------------------------------------|

this should be easy enough...
Tap to rate this tab
 
# A B C D E F G H I J K L M N O P Q R S T U V W X Y Z