Song name
# A B C D E F G H I J K L M N O P Q R S T U V W X Y Z

Siakol - Korni tab

Solo chords: G , D , Em , C (4x)

TABBED BY : Sarj Ojenal

kinapa ko lang toh kaya kayo na magsabi kung tama o hindi...

kung nagustuhan nio rate nio kung hindi ok lang hehe....




E||------------------------|-------------3/5---3-|---------2h3----------|
B||-------------0h1---1/3--|---3/5---3-----------|-----5-----------5----|
G||------------------------|---------------------|----------------------|
D||------3/5---------------|---------------------|----------------------|
A||------------------------|---------------------|----------------------|
E||------------------------|---------------------|----------------------|


E||------2h3-------3/7---5---|---5h7----8p7-----5-----------------------|
B||------3-------------------|---5--------------------8-8---------------|
G||--------------------------|------------------------------------------|
D||--------------------------|------------------------------------------|
A||--------------------------|------------------------------------------|
E||--------------------------|------------------------------------------|


E||----------------------------2h3-|----7------10------7--8---10--------|
B||----8---7----5-----3--------3---|----7h8------------7----------8-----|
G||--------------------------------|------------------------------------|
D||--------------------------------|------------------------------------|
A||--------------------------------|------------------------------------|
E||--------------------------------|------------------------------------|


E||-------------------3h5------3---|---5/7-----5--------\5--------------|
B||----8p7----5-------3------------|------------------------------------|
G||--------------------------------|------------------------------------|
D||--------------------------------|------------------------------------|
A||--------------------------------|------------------------------------|
E||--------------------------------|------------------------------------|



E||----8p7-----5-------------------|------3-----------------------------|
B||-------------------8-------5----|------3-----------------------------|
G||--------------------------------|------------------------------------|
D||--------------------------------|------------------------------------|
A||--------------------------------|------------------------------------|
E||--------------------------------|------------------------------------|


PARA SAKIN 100% correct yan...

kung may mali comment kau ha....

kasi kapa lang yan...

AT SPECIAL THANKS FOR Noel Palomo for giving me the chords...



Tap to rate this tab
 
# A B C D E F G H I J K L M N O P Q R S T U V W X Y Z