Siakol - Aanhin tab

Aanhin  Siakol
Tabs by: alay ponchica

Intro; E-G#7-C#m-A-F#m-B7 --2x

E-B7-E7-A 
Kung wala naman kapayapaan
Kung wala naman katahimikan

F#m-C#m-F#7-B7
Hanggat na andito kay mahirapang mamatay
Patuloy akong mabubuhay

Kahit magkaroon pa ng palasyo
Kahit dalhin ako sa paraiso
Kung ikaw naman sa akin ay mawawalay
Paligit koy wala ring kulay

Chorus

E-G#7-C#m-A-F#m-B7
Aanhin ko ang ganda nitong mundo
Kung wala namang natagpuan na katulad mo
Kahit langit man ay di ko Makita
Mas nanaisin ko pa rin kung nasaan ka.

Ikaw ang katuparan ng pangarap
Ikaw ang kasagutang hinahanap
Pagkakasilang koy nag karoon din ng saysay
Maydahilan na ang paglalakbay.

Repeat chorus
Adlib
Repeat chorus

Kung nasaan ka ha..

Repeat Chorus again..
------------------------------------------------------------------------

Tabbed by:alay ponsica
Email:alay_ponsica@yahoo.com
Tuning:standard
Aanhin solo
e|-----------------------------------------------------------------|
B|------------------------------10/12-10p9-10p9---7h9p7------------|
G|----------------------9-9-11------------------9-------9-9--------|
D|-------------7-9-9/11--------------------------------------------|
A|-------7-7/9-----------------------------------------------------|
E|-5/7-9-----------------------------------------------------------|
 
e|-----------------------------------------------------------------|
B|-----------------------------------------------------------------|
G|-7/9-7---7--------------------------------9----9-9/11-11-9-11----|
D|-------9---9/11-9--------------------9-11---11-------------------|
A|------------------11-9-7------7-9-11-----------------------------|
E|--------------------------7-9------------------------------------|
 
e|--------------------------------------------------------------------|
B|-----12-----12-----12-----12------------------9-10-10/12-12-12-12---|
G|-12b----12b----12b----12b----12b-9-11-9--9-11-----------------------|
D|--------------------------------------------------------------------|
A|--------------------------------------------------------------------|
E|--------------------------------------------------------------------|
 
 
e|-11/12-11-9h11-9----------------------------|
B|-----------------1210p9----10-9------------|
G|-------------------------11-------11-9-8-9~-|
D|--------------------------------------------|
A|--------------------------------------------|
E|--------------------------------------------|
 
paki rate nlng po ty ^_^
hello sa 4j-bratts sa cavite!
Tap to rate this tab
 
# A B C D E F G H I J K L M N O P Q R S T U V W X Y Z