Song name
# A B C D E F G H I J K L M N O P Q R S T U V W X Y Z

Siakol - Tropa tab

tropa - siakol 

standard:


E - B - C#m - A-B 

intro:


E|-------------------------------------4-5-4----|
B|---5-4-5-4---5-5-7-5----5-4-5-4---5-7-----7-5-|
G|--4-4-4---4-4-4-----4--4-4-4---4-6------------|
D|----------------------------------------------|2X
A|----------------------------------------------|
E|----------------------------------------------|



Verse 1: (DO THIS CHORDS: E-B-C#m-A-B)
      
kwentuhan na kabulastugan
       
hindi malilimutan ang asaran 
              
na mayroong pikunan

lalo na rin ang unang niligawan

unang kabiguan

at dyan nagseseryoso ang usapan

ang pagdadamayan

ng tunay at tapat na 


Refrain: (A-B 2x)

kaibigan

o mga buang/baliw 

kaibigan

lubhang maasahan/namang nakakaaliw


ohhh.

Chorus:     (DO THIS CHORDS: E - B - C#m - A-B)

di na tayo pabata

edad mo di  nahahahlata

sa mga trip unti unti na tayong nagsasawa

pero kahit ganun

barkadang matatag hangang sa ngaun

minsan man magkita

tiyak may kwela

yan ang aking mga tropa...



Repeat INTRO:


Verse 2:    (DO THIS CHORDS: E - B - C#m - A-B)

Inuman na pangmagdamagan

minsan inaabut pa ng ayaan 

na kung saan saan

na para bang walang kinabukasan

at kahahantungan

at dyan nagseseryoso ang usapan

ang pagpapayuhan



(repeat refrain and chorus)



SOLO:

E|-----------------------------------4-5-7-5-4-5-4---4---------|
B|---------------4-5-7^-5br4-5--4-5-7--------------7--7-4-5-7-5|
G|------------4-6----------------------------------------------|
D|-------2-4-6-------------------------------------------------|
A|-------------------------------------------------------------|
E|-------------------------------------------------------------|


                             |-PM-|
E|----4-5-7/9-7-5-4-5-4-4---------------4-5-4-7-4-5-4----------|
B|--7------------------7-5-7---------5-7-------------7-5-------|
G|---------------------------------4-6-------------------------|
D|----------------------------2-4-6----------------------------|
A|-------------------------------------------------------------|
E|-------------------------------------------------------------|



E|---------------------------------------------4-4-5-4-4-------|
B|--------------5-4-5-4---5-5-7-5---5-4-5-4-5-7-7-----7-7-5----|
G|-------------4-4-----4-4-4-----4-4-4-------------------------|
D|-------------------------------------------------------------|
A|-------------------------------------------------------------|
E|-------------------------------------------------------------|


                                                PM   pm   pm
E|-------------------------------------------------------------|
B|------------7/9^9^9^-9-7-9^-7-7--9-7-7-----------7---7-----5-|
G|-----------------------------9--9---9-9-7h9------------------|
D|----------------------------------------------9-9-9-7-7-4----|
A|-------------------------------------------------------------|
E|-------------------------------------------------------------|



(Repeat Chorus 2X)









OUTRO:
E|-------------------------------------4-5-4----|
B|---5-4-5-4---5-5-7-5----5-4-5-4---5-7-----7-5-|
G|--4-4-4---4-4-4-----4--4-4-4---4-6------------|
D|----------------------------------------------|2X
A|----------------------------------------------|
E|----------------------------------------------|




1:20 pm - 3:25 pm --august 12 2010



100% poh yan ..

1st tab ko toh enjoy



if my prob..add me up in facebook&friendster

xi_jhie_xi@yahoo.com


watch my video sa youtube para makuha timing at tamang pag palm mute

type lang sa youtube:

tropa siakol-solo jhie



thnx sana paki rate..






Tablature Legend:


| /  slide up
| \  slide down
| h  hammer-on
| p  pull-off
| ~  Let it vRing
| +  harmonic
| x  Mute note
| PM Palm mute
| ^  pull
| br bend release
Tap to rate this tab
 
# A B C D E F G H I J K L M N O P Q R S T U V W X Y Z