Song name
# A B C D E F G H I J K L M N O P Q R S T U V W X Y Z

Siakol - Itigil Na Natin tab

-------------------------------------------------------------------------------
			     siakol - itigil na natin
-------------------------------------------------------------------------------
Tabbed by:totim
Email:totziemoron@yahoo.com

Tuning:

intro
e|----------------------------------------|
B|----------0h2---------------------------|
G|------2---------2-----0-----0-----------|
D|----2---2-----2-----0---0-----0---------|
A|--0-----------------------------2-------|
E|------------------3-------3-------------|

verse
e|----------------------------------------|
B|----------0h2---------------------------|
G|------2---------2-----0-----0-----------|
D|----2---2-----2-----0---0-----0---------|
A|--0-----------------------------2-------|
E|------------------3-------3-------------|

e|----------------------------------------|
B|----------0h2---------------------------|
G|------2---------2-----0-----0-----------|
D|----2---2-----2-----0---0-----0---------|
A|--0-----------------------------2-------|
E|------------------3-------3-------------|

disortion !

e|--------------------------------------------------|
B|--------------------------------------------------|
G|-------7-----------5------------------------------|
D|-3-----7-4x--7-----5-8x--3------------------------|
A|-3-8x--5-----7-4x--3-----3-8x---------------------|
E|-1-----------5-----------1------------------------|
****************************************************************

chorus 
distortion
e|----------------------------------------------|
B|----------------------------------------------|
G|-5--------------------------------------------|
D|-5-3x--5-----7-----0-----3-----5--------------|
A|-3-----5-3x--7-3x--2-3x--3-8x--5-8x-----------|
E|-------3-----5-----2-----1-----3--------------|


****************************************************
gtr1
e|----------------------------------------|
B|----------0h2---------------------------|
G|------2---------2-----0-----0-----------|
D|----2---2-----2-----0---0-----0---------|
A|--0-----------------------------2-------|
E|------------------3-------3-------------|

e|----------------------------------------|
B|----------0h2---------------------------|
G|------2---------2-----0-----0-----------|
D|----2---2-----2-----0---0-----0---------|
A|--0-----------------------------2-------|
E|------------------3-------3-------------|


gtr2
E|--------------------------------------------------------|
B|--------------------------------------------------------|
G|-6/8-6-6h8p6-5-5h6p5-3-3h5p3p2---3h5p3-2h3p3------------|
D|-------------------------------5-------------3----------|
A|--------------------------------------------------------|
e|--------------------------------------------------------|

e|-4/6-4-4h6p4-3-3h4p3------------------------------------|
B|---------------------6-6h8p6---5h6p5p3-6-5--------------|
G|-----------------------------7--------------------------|
D|--------------------------------------------------------|
A|--------------------------------------------------------|
E|--------------------------------------------------------|
**********************************************************************
solo

e|---------------------------------------------------------------------|
B|-----5-----------------------------------8h10-10/11--11-13p11--------|
G|-6/8---8p6--------------------10-9--9h10----------------------12-----|
D|-----------8-8-8p6---6/8-8/10----------------------------------------|
A|-------------------8-------------------------------------------------|
E|---------------------------------------------------------------------|

e|------------------------------------------------------------------|
B|------------------------------------------------------------------|
G|-6/8-8-8-\6--6/8-8-8-\6--6-8--6-6-6-6-----------------------------|
D|------------------------------------------------------------------|
A|------------------------------------------------------------------|
E|------------------------------------------------------------------|


************************************

| /   slide up
| \   slide down
| h   hammer-on
| p   pull-off

************************************
Tap to rate this tab
 
# A B C D E F G H I J K L M N O P Q R S T U V W X Y Z