Song name
# A B C D E F G H I J K L M N O P Q R S T U V W X Y Z

Siakol - Ituloy Mo Lang tab

SONG: Ituloy mo lang
ARTIST: SIAKOL
ALBUM: TROPA
YEAR: 2010
TABBED: CRIS MABEZA (tantoi)
LOCATION: MANDALUYONG CITY
DATE: FEB-2011

THIS TABBED IS FOR ONE GUITAR ONLY.
I ONLY DONE THIS BY EAR. SO, IF SOME NOTES NOT EXACTLY FOR IT
KINDLY MAKE A CORRECTION OF YOUR OWN..
THIS SONG IS DEDICATED TO ALL THE FAGGOTS OUT THERE
WISHING TO SEE A MARIPOSA SOMEDAY..^_^(BIBI GANDANGHARI). HEKHEK

SANA MAGUSTUHAN NIYO.. \m/

"REAL MUSIC FOR THE REAL PEOPLE"


TUNING: E B G D A E (STANDARD)
LEGEND:
h-HAMMER ON
p-PULL UP
/-SLIDE UP
\-SLIDE DOWN
PM-PALM MUTED
b1/2-BEND ONE HALF NOTE

INTRO:

PART 1(2X)
ACOUSTIC(CLEAN)
E|--------------------------------------------|
A|--------0h2-3-2-0h2-----2--0--2-----2-0-----|
D|------2-------------2-----------2-------2-1-|
G|----2---------------------------------------|
B|--0------------------0---0--0-----0---------|
E|--------------------------------------------|

PART 2
ELECTRIC GUITAR (OVERDRIVEN)
E|---------------------------------|
A|---------------------------------|
D|---------------------------------|
G|--7--7-7-7-7-7--6-6-6-6/7-7-7-7--|
B|--7--7-7-7-7-7--X-X-X-X-X-X-X-X--|
E|--5--5-5-5-5-5--4-4-4-4/5-5-5-5--|

E|---------------------------------|
A|---------------------------------|
D|---------------------------------|
G|--4--4-4-4-4-4--6-6-6-6/7-7-7-7--|
B|--4--4-4-4-4-4--X-X-X-X-X-X-X-X--|
E|--2--2-2-2-2-2--4-4-4-4/5-5-5-5--|

E|---------------------------------|
A|---------------------------------|
D|--9--9-9-9-9-9-------------------|
G|--9--9-9-9-9-9--6-6-6-6/7-7-7-7--|
B|--7--7-7-7-7-7--X-X-X-X-X-X-X-X--|
E|----------------4-4-4-4/5-5-5-5--|

E|---------------------------------|
A|---------------------------------|
D|--7--7-7-7-7-7--6-6-6-6h7-7-7-7--|
G|--7--7-7-7-7-7--7-7-7-7-7-7-7-7--|
B|--5--5-5-5-5-5--5-5-5-5-5-5-5-5--|
E|---------------------------------|

E|---------------------------------|
A|---------------------------------|
D|---------------------------------|
G|--7--7-7-7-7-7--6-6-6-6/7-7-7-7--|
B|--7--7-7-7-7-7--X-X-X-X-X-X-X-X--|
E|--5--5-5-5-5-5--4-4-4-4/5-5-5-5--|

E|---------------------------------|
A|---------------------------------|
D|---------------------------------|
G|--4--4-4-4-4-4--6-6-6-6/7-7-7-7--|
B|--4--4-4-4-4-4--X-X-X-X-X-X-X-X--|
E|--2--2-2-2-2-2--4-4-4-4/5-5-5-5--|

E|---------------------------------|
A|---------------------------------|
D|--9--9-9-9-9-9-------------------|
G|--9--9-9-9-9-9--6-6-6-6/7-7-7-7--|
B|--7--7-7-7-7-7--X-X-X-X-X-X-X-X--|
E|----------------4-4-4-4/5-5-5-5--|

E|---------------------------------|
A|---------------------------------|
D|--7~-----------------------------|
G|--7~-----------------------------|
B|--5~-----------------------------|
E|---------------------------------|

VERSE:(2X)

ELECTRIC GUITAR(CLEAN)
E|------------------------------------|
A|--0-0-0-0-0-0-0-0-------------------|
D|--2-2-2-2-2-2-2-2--2-2-2-2-2-2-2-2--|
G|--2-2-2-2-2-2-2-2--4-4-4-4-4-4-4-4--|
B|--0-0-0-0-0-0-0-0--4-4-4-4-4-4-4-4--|
E|-------------------2-2-2-2-2-2-2-2--|

ELECTRIC GUITAR (OVERDRIVEN)
E|------------------------------------|
A|------------------------------------|
D|--9-9-9-9-9-9-9-9--7-7-7-7-7-7-7-7--|
G|--9-9-9-9-9-9-9-9--7-7-7-7-7-7-7-7--|
B|--7-7-7-7-7-7-7-7--5-5-5-5-5-5-5-5--|
E|------------------------------------|

REFRAIN:

ELECTRIC GUITAR (OVERDRIVEN)
E|-------------------------------------------|
A|-------------------------------------------|
D|--2---2---2---2---2-----9---9---9-9\7HOLD--|
G|----2---2---2---2-----9---9---9---9\7HOLD--|
B|----------------------------------7\5HOLD--|
E|-------------------------------------------|

E|---------------------------------------|
A|---------------------------------------|
D|--2---2---2---2---2---9-9-9-9-9-9-9-9--|
G|----2---2---2---2-----9-9-9-9-9-9-9-9--|
B|----------------------7-7-7-7-7-7-7-7--|
E|---------------------------------------|

REPEAT VERSE
REPEAT REFRAIN

CHORUS: (2X)

ELECTRIC GUITAR (OVERDRIVEN)
E|------------------------------------|
A|------------------------------------|
D|------------------------------------|
G|--7-7-7-7-7-7-7-7--4-4-4-4-4-4-4-4--|
B|--7-7-7-7-7-7-7-7--4-4-4-4-4-4-4-4--|
E|--5-5-5-5-5-5-5-5--2-2-2-2-2-2-2-2--|

E|------------------------------------|
A|------------------------------------|
D|--9-9-9-9-9-9-9-9--7-7-7-7-7-7-7-7--|
G|--9-9-9-9-9-9-9-9--7-7-7-7-7-7-7-7--|
B|--7-7-7-7-7-7-7-7--5-5-5-5-5-5-5-5--|
E|------------------------------------|

E|------------------------------------|
A|------------------------------------|
D|------------------------------------|
G|--7-7-7-7-7-7-7-7--4-4-4-4-4-4-4-4--|
B|--7-7-7-7-7-7-7-7--4-4-4-4-4-4-4-4--|
E|--5-5-5-5-5-5-5-5--2-2-2-2-2-2-2-2--|

E|------------------------------------|
A|------------------------------------|
D|--9-9-9-9-9-9-9-9--7~---------------|
G|--9-9-9-9-9-9-9-9--7~---------------|
B|--7-7-7-7-7-7-7-7--5~---------------|
E|------------------------------------|

INTERLUDE:

ELECTRIC GUITAR (OVERDRIVEN)
E|---------------------------------|
A|---------------------------------|
D|---------------------------------|
G|--7--7-7-7-7-7--6-6-6-6/7-7-7-7--|
B|--7--7-7-7-7-7--X-X-X-X-X-X-X-X--|
E|--5--5-5-5-5-5--4-4-4-4/5-5-5-5--|

E|---------------------------------|
A|---------------------------------|
D|---------------------------------|
G|--4--4-4-4-4-4--6-6-6-6/7-7-7-7--|
B|--4--4-4-4-4-4--X-X-X-X-X-X-X-X--|
E|--2--2-2-2-2-2--4-4-4-4/5-5-5-5--|

E|---------------------------------|
A|---------------------------------|
D|--9--9-9-9-9-9-------------------|
G|--9--9-9-9-9-9--6-6-6-6/7-7-7-7--|
B|--7--7-7-7-7-7--X-X-X-X-X-X-X-X--|
E|----------------4-4-4-4/5-5-5-5--|

E|---------------------------------|
A|---------------------------------|
D|--7--7--7~-----------------------|
G|--7--7--7~-----------------------|
B|--5--5--5~-----------------------|
E|---------------------------------|

REPEAT VERSE
REPEAT REFRAIN
REPEAT CHORUS

SOLO/interlude:

ELECTRIC GUITAR (OVERDRIVEN)

       A5                  F#5                    E5               D5                            
                                                                PM ---------------------   
E|---------------9--10-9---------------9--10-9-----------------------------------------------|
A|---4/10--10-12---------12-10\-/10-12---------12--------------------------------------------|
D|------------------------------------------------9b1/2-9b1/2-9-9\-9999-7777-6666------------|
G|--------------------------------------------------------------------------------9999-7HOLD-|
B|-------------------------------------------------------------------------------------------|
E|-------------------------------------------------------------------------------------------|

       A5                  F#5                    E5               D5  
                                                    MODERATE FAST PICKING -------------
E|---------------9--10-9-12-10-9----9-10-9-----7/12-12-1212-12\-/10-9--------------------|
A|----/10--10-12-----------------12--------12-------------------------12--12-10-9-10-12~-|
D|---------------------------------------------------------------------------------------|
G|---------------------------------------------------------------------------------------|
B|---------------------------------------------------------------------------------------|
E|---------------------------------------------------------------------------------------|

REPEAT VERSE
REPEAT CHORUS:(2X)

OUTRO:(2X)

ELECTRIC GUITAR(CLEAN)
E|------------------------------------|
A|--0-0-0-0-0-0-0-0-------------------|
D|--2-2-2-2-2-2-2-2--2-2-2-2-2-2-2-2--|
G|--2-2-2-2-2-2-2-2--4-4-4-4-4-4-4-4--|
B|--0-0-0-0-0-0-0-0--4-4-4-4-4-4-4-4--|
E|-------------------2-2-2-2-2-2-2-2--|


E|-------------------2-2-2-2-2-2-2-2--|
A|-------------------3-3-3-3-3-3-3-3--|
D|--1-1-1-1-1-1-1-1--2-2-2-2-2-2-2-2--|
G|--2-2-2-2-2-2-2-2-------------------|
B|--2-2-2-2-2-2-2-2-------------------|
E|------------------------------------|

LYRICS


VERSE 1: 

Noong bata ka pa si Darna ang ginagaya
Minsan nama'y nagbi-bistida
Maging sa laruan manika ang napag-tripan
Ayaw mo ng baril-barilan.

REFRAIN 1: 

'Di ka nila sinasali
Hindi ka raw tunay na lalaki.

VERSE 2:
 
Gusto ng tatay mo na ika'y mag-sundalo
Pero babae ang puso mo
Kahit lunurin ka wala ring napala sila
Nung sabi mong ika'y sirena.

REFRAIN 2: 

'Wag kang mag-alala
Matatanggap ka rin nila.

CHORUS: 

At kahit na ano pa ang gusto mo
Basta wala ka bang tinatapakan na tao,
Ituloy mo lang ito!
Ang mahalaga ikaw ay masaya
'Wag mong intindihin ang sasabihin ng iba,
Sila ang may problema!


INTERLUDE: 

VERSE 3: 
Walang pumapansin sa natatangi mong galing
Mas madalas ka pang laitin
Pinapakita mo na may silbi ka sa mundo
Ngunit walang rumirespeto.

RAFRAIN 3: 
Lagi na lang iisipin
Sila na lang ang unawain.

REPEAT CHORUS:

RIFF:

REPEAT REFRAIN 2
REPEAT CHORUS(2X)

OUTRO:

Silang lumalait, silang mahilig manakit
Silang 'di pupunta sa langit. (2X)


Tap to rate this tab
 
# A B C D E F G H I J K L M N O P Q R S T U V W X Y Z