Song name
# A B C D E F G H I J K L M N O P Q R S T U V W X Y Z

Siakol - Ituloy Mo Lang tab

Ituloy mo lang
artist: Siakol
tabbed by ferdz tobats
email: tobatsdrive@yahoo.com
date : march 04, 2011
time: 1:44
contact no.: 09078968043
university of caloocan city


guys eto ung solo nya pakinggan nyo na lang para madaling masundan...
chords: A F#m E D

e|--------------------------------------------------------|
B|-----10~-10-12-14-15--14~-12-10~-10-12-14-15-14-12~-----|
G|--9-------------------------------------------------9~--|
D|--------------------------------------------------------|
A|--------------------------------------------------------|
E|--------------------------------------------------------|

e|--------------------------------------------|
B|--------------------------------------------|
G|------999--777------------------------------|
D|-9h11------------11-11-11-999-777-----------|
A|--------------------------------------------|
E|--------------------------------------------|



e|------------------------------------------------------|
B|-----10~-10-12-14-15--14s-17-15-14-12-14-15-14-12s17--|
G|--9---------------------------------------------------|
D|------------------------------------------------------|
A|------------------------------------------------------|
E|------------------------------------------------------|

e|--------------------------------------------------------|
B|--------17-17-17-15-15-15-------------------------------|
G|-s16-18-------------------18-18-18-16-16-16-14-13-14-16-|
D|--------------------------------------------------------|
A|--------------------------------------------------------|
E|--------------------------------------------------------|


comment or suggestion email nyo lang para maayos ko...sana makatulong :))
Tap to rate this tab
 
# A B C D E F G H I J K L M N O P Q R S T U V W X Y Z