Song name
# A B C D E F G H I J K L M N O P Q R S T U V W X Y Z

Siakol - Ituloy Mo Lang tab

Ituloy mo lang
by Siakol
tabbed by ferdz tobats
email: tobatsdrive@yahoo.com
time: 1:20
date: march 07, 2011


intro:
guitar 1:  2x
e|--------------------------------------------------------------|
B|--------0-2h3-2-0h2----------2-------2----------0-------------|
G|------2-------------2------4-----4------------1------2---1----|
D|----2---------------------------------------------------------|
A|--0-----------------------------------------------------------|
E|------------------------2------2---3----2--0-------0---0------|

guitar 1: (srum)
      A    F#m E   D  2x
e|-----------------2--------|
B|----10---7---5---3--------|
G|----9----6---4---2--------|
D|----7----4---2---0--------|
A|--------------------------|
E|--------------------------|


guitar 2: Lead

e|-------------------------------------------------------|
B|---10--------------------------------------------------|
G|---9--(strum)-9-13-14-6666-13-14-9999-13-14-7777-6-----|
D|---7----------x--x--x-xxxx--x--x-xxxx--x--x-xxxx-x-----|
A|--------------7-11-12-4444-11-12-7777-11-12-5555-4-----|
E|-------------------------------------------------------|


e|-------------------------------------------------------|
B|---10--------------------------------------------------|
G|---9--(strum)-9-13-14-6666-13-14-9999-13-14-7----------|
D|---7----------x--x--x-xxxx--x--x-xxxx--x--x-x----------|
A|--------------7-11-12-4444-11-12-7777-11-12-5----------|
E|-------------------------------------------------------|

verse:  A2 F#m D E
pre chorus: Bm E (F#m)
            Bm E

chorus: A F#m D E

solo: A F#m D E 2X
e|--------------------------------------------------------|
B|-----10~-10-12-14-15--14~-12-10~-10-12-14-15-14-12~-----|
G|--9-------------------------------------------------9~--|
D|--------------------------------------------------------|
A|--------------------------------------------------------|
E|--------------------------------------------------------|

--------------------------------------------|
--------------------------------------------|
------999--777------------------------------|
-9h11------------11-11-11-999-777-----------|
--------------------------------------------|
--------------------------------------------|



e|------------------------------------------------------|
B|-----10~-10-12-14-15--14s-17-15-14-12-14-15-14-12s17--|
G|--9---------------------------------------------------|
D|------------------------------------------------------|
A|------------------------------------------------------|
E|------------------------------------------------------|

--------------------------------------------------------|
--------17-17-17-15-15-15-------------------------------|
-s16-18-------------------18-18-18-16-16-16-14-13-14-16-|
--------------------------------------------------------|
--------------------------------------------------------|
--------------------------------------------------------|

I
Noong bata ka pa si Darna ang ginagaya
Minsan nama'y nagbi-bistida
Maging sa laruan manika ang napag-tripan
Ayaw mo ng baril-barilan.

Refrain:
'Di ka nila sinasali
Hindi ka raw tunay na lalaki.

II
Gusto ng tatay mo na ika'y mag-sundalo
Pero babae ang puso mo
Kahit lunurin ka wala ring napala sila
Nung sabi mong ika'y sirena.

Refrain II:
'Wag kang mag-alala
Matatanggap ka rin nila.

Chorus:
At kahit na ano pa ang gusto mo
Basta wala ka bang tinatapakan na tao,
Ituloy mo lang ito!
Ang mahalaga ikaw ay masaya
'Wag mong intindihin ang sasabihin ng iba,
Sila ang may problema!

Interlude:

III
Walang pumapansin sa natatangi mong galing
Mas madalas ka pang laitin
Pinapakita mo na may silbi ka sa mundo
Ngunit walang rumirespeto.

Refrain III:
Lagi na lang iisipin
Sila na lang ang unawain.

(Repeat Chorus)

Adlib:

(Repeat Refrain II)

(Repeat Chorus 2X)

Coda:
Silang lumalait, silang mahilig manakit
Silang 'di pupunta sa langit. (2X)

END
Tap to rate this tab
 
# A B C D E F G H I J K L M N O P Q R S T U V W X Y Z