Song name
# A B C D E F G H I J K L M N O P Q R S T U V W X Y Z

Siakol - Ikaw Lamang tab

latigo_robert@yahoo.com
ikaw lamang(ALA UNA NG GABE): siakol

    D                 A            G      
ala una ng gabe hindi ako mapakale hinahanap 
            D             Bm           Em         A
kanang puso ko ng halik mo ng yakap mo para lang sayo
mag iyak kang maghapon ng ikay mag bakasyon 
at ako iniwan mung nalulungkot nalulumbay 
sa kahihintay

       G             E            A
ngunit eto ako nag mamahal parin sayo

G            A                D   
malayo kaman ikaw lang saksi ang bituin
Bm            Em                   A
pati ang buan kahit ang kalangitan
      D                           G
ay nag sasabing ikaw lamang, pero ang
             A          D                      Bm
gumugulo sa isipan ang mang yaring di muna ako balikan
      Em                   A 
dahil ang sigaw ng puso ko.. ikaw lamang


ilang buwan ang nag daan wala 
ng sulatan ako bay nalimut na
di malaman ang gagawin na saan kana
ala una ng gabe iba ang aking katabe 
akoy na kukunsensyana at di sana
 mag yayari kung nandito ka

(back to refrain)
(back to chorus)

e|-----------------------------------7--9--10--10p7--7--------------|
B|-----------------------------7-10----------------------10--10p7---|
G|-------------------7h9-7-9b---------------------------------------|
D|---------4-4h5--7-------------------------------------------------|
A|--5-5h7-----------------------------------------------------------|
E|------------------------------------------------------------------|

e|---------7-7--9-9-10-9-7-9-9p7-7-9-10-12-12-10-9-10-9-10-12---14-17-15-14-15--|
B|--10-10-----------------------------------------------------------------------|
G|------------------------------------------------------------------------------|
D|------------------------------------------------------------------------------|
A|------------------------------------------------------------------------------|
E|------------------------------------------------------------------------------|

e|--14-12-12/14-12-14-12--------------------------------------------------------|
B|------------------------15-14-15-14---12-14-12---10-12-10---8-10-8--7-8-8p7---|
G|------------------------------------------------------------------------------|
D|------------------------------------------------------------------------------|
A|------------------------------------------------------------------------------|
E|------------------------------------------------------------------------------|

e|----------------------------------7--7--10-10-10--12-12-12--14-14-14--15-15-15--|
B|--7-------------------------7-10------------------------------------------------|
G|-----9-7b--7-9-9p7-----7-9------------------------------------------------------|
D|--------------------9-----------------------------------------------------------|
A|--------------------------------------------------------------------------------|
E|--------------------------------------------------------------------------------|

e|--17-17-17--15-15-15--14-12-14--15/17--15-14-12--------------------15p14-12----|
B|-------------------------------------------------15-14--15p14------------------|
G|---------------------------------------------------------------16--------------|
D|-------------------------------------------------------------------------------|
A|-------------------------------------------------------------------------------|
E|-------------------------------------------------------------------------------|

e|-----------------------------------------------------------------------------------|
B|--15-14-15-14--12-14-12-14-15-14---------------14-15-17-15--15p14--12--14p12-12----|
G|----------------------------------14-16-14-16-----------------------------------12-|
D|-----------------------------------------------------------------------------------|
A|-----------------------------------------------------------------------------------|
E|-----------------------------------------------------------------------------------|

     G             E            A
ngunit eto ako nag mamahal parin sayo

G            A                D   
malayo kaman ikaw lang saksi ang bituin
Bm            Em                   A
pati ang buan kahit ang kalangitan
      D                           G
ay nag sasabing ikaw lamang, pero ang
             A          D                      Bm
gumugulo sa isipan ang mang yaring di muna ako balikan
      Em                   A       D                 Bm
dahil ang sigaw ng puso ko.. dahil ang sigaw ng puso ko hoho
      Em                   A
dahil ang sigaw ng puso ko... IKAW LAMANG
Tap to rate this tab
 
# A B C D E F G H I J K L M N O P Q R S T U V W X Y Z