Song name
# A B C D E F G H I J K L M N O P Q R S T U V W X Y Z

Siakol - Tropa tab

INTRO:

A-Eb-E

 

E|--------------------------------------4-5------|
B|---5-4-5-4----5-5-7-5----5-4-5-4-7-5-7-----7-5-|
G|--4-4-----4--4-4-----4--4-4-----4---4----------|
D|-----------------------------------------------|2X
A|-----------------------------------------------|
E|-----------------------------------------------|

 

SOLO:

 
E|-----------------------------------4-5-4---4-----------------|
B|---------------4-5-7-7^-5br4-5--5-7------7---7^-7-5-7-5h7r5--|
G|------------4-6---------------4------------------4-----------|
D|-------2-4-6-------------------------------------------------|
A|-------------------------------------------------------------|
E|-------------------------------------------------------------|

  
                                  |-PM-|

E|----4-5-7/9-7-5-4-4h5r4-------------------4-5-4h5-4-5-7-5----|
B|--7--------------------7---5\7---------5-7-------7-------5---|
G|-------------------------4----------4-6----------------------|
D|-------------------------------2-4-6-------------------------|
A|-------------------------------------------------------------|
E|-------------------------------------------------------------
 
 

E|------------------------------4-4h5r4-4---------4-4-4--------|
B|----5-5-7-5---5-5-7-5-----5-7--------7-7^-5-5h7------5-7-----|
G|---4-4---4---4-4-----4-3-------------------------------------|
D|------------------------6------------------------------------|
A|-------------------------------------------------------------|
E|-------------------------------------------------------------|

                              PM   

E|---4-5-7r5r4----7-5-4----------------------------------------|
B|------------7-5-------7r5-------7---7---5--------------------|
G|-------------------------6-4-6-4--4--------------------------|
D|-----------------------------------6-6-4---------------------|
A|-------------------------------------------------------------|
E|-------------------------------------------------------------|

                                    (Repeat Chorus 2X)

 
OUTRO:

E|--------------------------------------4-5-------------|
B|---5-4-5-4----5-5-7-5----5-4-5-4-7-5-7----7-5---------|
G|--4-4-----4--4-4-----4--4-4-----4---4-----------------|
D|------------------------------------------------------|2X
A|------------------------------------------------------|
E|------------------------------------------------------|

 
any comment add me FB

xi_jhie_xi@yahoo.com

DogByt3sz Band


this is Revised Tab..Thanks
Tap to rate this tab
 
# A B C D E F G H I J K L M N O P Q R S T U V W X Y Z