Song name
# A B C D E F G H I J K L M N O P Q R S T U V W X Y Z

Siakol - Korni tab

chords used:
intro: D7----
verse: G-D-Em-C-;x2
chorus: Am-Em
Adlib: G-D-Em-C


e-------------------------3/5--3--2--3p2--------2h3--3/7--5-----|
B-------0h1--1/3--3/5--3------------------5--3--3---------------|
G---------------------------------------------------------------|
D--3/5----------------------------------------------------------|
A---------------------------------------------------------------|
E---------------------------------------------------------------|

e--7--8p7---------------------------------10--------------------|
B--7-------10--8--8--8p7--5--7--7/8--7h8------8--8p7--5h7-------|
G---------------------------------------------------------------|
D---------------------------------------------------------------|
A---------------------------------------------------------------|
E---------------------------------------------------------------|

e-----------5/7--5--8p7-----------------------------------------|
B--8/10--8---------------10p8-----8-----------------------------|
G------------------------------9--7-----------------------------|
D---------------------------------------------------------------|
A---------------------------------------------------------------|
E---------------------------------------------------------------|

add nio ako fb: r_pines81@yahoo.com
cel # 09306913465
PILANDRES BAND RULES!!!!! hahahaha!!!!
Tap to rate this tab
# A B C D E F G H I J K L M N O P Q R S T U V W X Y Z