Song name
# A B C D E F G H I J K L M N O P Q R S T U V W X Y Z

Siakol - Lagim tab

Help us improve GuitareTab! Take a short survey!
tabbed by: Jenard Jaleco and Knowver Alamin 
of General,santos,city...request,comments and  suggestions email us at
jenard_124@yahoo.com....


solo

e|--------------------------------------9^---|
B|---------7--9--10--9------12--10--9--------|
G|----/9-----------------9-------------------|
D|-------------------------------------------|
A|-------------------------------------------|
E|-------------------------------------------|

e|-------------------------------------------|    
B|---------7--9--10--9------12--10--9--------|      2X
G|----/9-----------------9---------------9^--|
D|-------------------------------------------|
A|-------------------------------------------|
E|-------------------------------------------|
Related for Lagim tab