Song name
# A B C D E F G H I J K L M N O P Q R S T U V W X Y Z

Siakol - Ituloy Mo Lang Live tab

ITULOY MO LANG
SIAKOL
Tabbed by: naguenyong vinx
www.facebook.com/naguenyongvinx

Date: June 6, 2013
DON'T FORGET TO RATE MY TAB!
99% ACCURATE!!!




INTRO:
E|-------------------------------------------|
B|----0-2-3-2-0h2------2-------2------0---0--|
G|---2-----------2----2-2-2/4----2---2---1---|
D|--2----------------------------------------|
A|-0-----------------------------------------|
E|------------------2----2----------0---0----|

THEN....
   A5 F#5 E5 D5
E|-x--x---x--x--|
B|-x--x---x--x--|
G|-x--x--/9--7--| 2x     {LISTEN CAREFULLY TO THE SONG
D|-7--4--/9--7--|               FOR THE STRUMMING PATTERN}
A|-7--4--/7--5--|
E|-5--2---x--x--|

VERSE:

A-F#m-E5-D5 (2x) 
Noong bata ka pa si Darna ang ginagaya
Minsan nama'y nagbi-bistida
Maging sa laruan manika ang napag-tripan
Ayaw mo ng baril-barilan.


REFRAIN:

(B5-E5-B5-E5)
'Di ka nila sinasali
Hindi ka raw tunay na lalaki.


VERSE 2:

Gusto ng tatay mo na ika'y mag-sundalo
Pero babae ang puso mo
Kahit lunurin ka wala ring napala sila
Nung sabi mong ika'y sirena.


REFRAIN 2:

'Wag kang mag-alala
Matatanggap ka rin nila.


CHORUS:

A-F#m-E5-D5 (2x)
At kahit na ano pa ang gusto mo
Basta wala ka bang tinatapakan na tao,
Ituloy mo lang ito!
Ang mahalaga ikaw ay masaya
'Wag mong intindihin ang sasabihin ng iba,
Sila ang may problema!


INTERLUDE: A5-F#5-E5-D5 (2x)


VERSE 3:

Walang pumapansin sa natatangi mong galing
Mas madalas ka pang laitin
Pinapakita mo na may silbi ka sa mundo
Ngunit walang rumirespeto.

REFRAIN 3:

Lagi na lang iisipin
Sila na lang ang unawain.


(Repeat Chorus)


Adlib: A5-F#5-E5-D5 (2x)


(Repeat REFRAIN 2)


(Repeat CHORUS 2x)


Outro:(VERSE Chords) >>Strum Lightly<<

Silang lumalait, silang mahilig manakit
Silang 'di pupunta sa langit. (2X)


CHORDS USED:
E|--0--2--x---x--x--x--x--|
B|--2--2--x---x--x--x--x--|
G|--2--2--x---x--9--7--4--|
D|--2--4--7---4--9--7--4--|
A|--0--4--7---4--7--5--2--|
E|--0--2--5---2--x--x--x--|
    A F#m A5 F#5 E5 D5 B5


Tap to rate this tab
 
# A B C D E F G H I J K L M N O P Q R S T U V W X Y Z