Song name
# A B C D E F G H I J K L M N O P Q R S T U V W X Y Z

Siakol - Korni tab

KORNI (SIAKOL)
TAB BY: CLOCK_ROSE


e-----2-2-----------------------------------------------------------------------|
b----1--1-----------------------------------------------------------------------|
g---2---2-----------------------------------------------------------------------|
D--0----0-----------------------------------------------------------------------|
A-------------------------------------------------------------------------------|
E-------------------------------------------------------------------------------|

Intro: D


VERSE:

         G           D             Em        C   
Parang katapusan na ng mundo pag inaaway mo ko

      G           D          Em - C
At madrama na ang kasunod nito

          G       D              Em         C
Parang telenobela ng instik may pagka-romantik

      G           D            Em - C
Pag naka bati ang bida't may halik 

Chorus:

          Am             Em
Korni na nga ako.. Pagdating sayo.. 

         Am           D
Korni na nga ako, totoo


Verse:

             G         D                  Em        C
Parang trangkaso o lagnat lang ba? pag di ka nakikita

         G           D              Em - C
Sa kispirin at yakapsul mo ay solve na

          G         D          Em         C
Parang lumang pelikula tayo saking panaginip

         G            D              Em - C
Na nagbalik ang tambalan ni Gay and Pit


Chorus:

          Am             Em
Korni na nga ako.. Pagdating sayo.. 

         Am           D
Korni na nga ako, totoo



INSTRUMENTAL or SOLO : G , D , Em , C (4x)

e-------------------------3/5--3--2--3p2--------2h3--3/7--5-----|
B-------0h1--1/3--3/5--3------------------5--3--3---------------|
G---------------------------------------------------------------|
D--3/5----------------------------------------------------------|
A---------------------------------------------------------------|
E---------------------------------------------------------------|
[ Tab from: http://www.guitaretab.com/s/siakol/297321.html ]
e--7--8p7---------------------------------10--------------------|
B--7-------10--8--8--8p7--5--7--7/8--7h8------8--8p7--5h7-------|
G---------------------------------------------------------------|
D---------------------------------------------------------------|
A---------------------------------------------------------------|
E---------------------------------------------------------------|

e-----------5/7--5--8p7-----------------------------------------|
B--8/10--8---------------10p8-----8-----------------------------|
G------------------------------9--7-----------------------------|
D---------------------------------------------------------------|
A---------------------------------------------------------------|
E---------------------------------------------------------------|



Chorus:

          Am             Em
Korni na nga ako.. Pagdating sayo.. 

         Am           D
Korni na nga ako, totoo


VERSE:

         G           D             Em        C   
Parang katapusan na ng mundo pag inaaway mo ko

      G           D          Em - C
At madrama na ang kasunod nito

          G       D              Em         C
Parang telenobela ng instik may pagka-romantik

      G           D            Em - C
Pag naka bati ang bida't may halik 



Chorus:

          Am             Em
Korni na nga ako.. Pagdating sayo.. 

         Am           D
Korni na nga ako, totoo

          Am                  Em
Korni na nga ako.. Bat kapa natatawa?

         Am             D
Korni na nga ako.. Talaga..

            G
Dahil ba mahal kita?...
Tap to rate this tab
 
# A B C D E F G H I J K L M N O P Q R S T U V W X Y Z