Song name
# A B C D E F G H I J K L M N O P Q R S T U V W X Y Z

Siakol - Balang Araw tab


E|---------------------|
B|---------------------|
G|---9b---9b---9b9r----|
D|---------------------|
A|---------------------|
E|---------------------|

E|-----------------------------------------------------------------|
B|-----------------------------------------8---7-------8---7-------|
G|---7---6---7---6---7---------7-------7-----------9---------------|
D|-----------------------7h9-------9-------------------------------|
A|-----------------------------------------------------------------|
E|-----------------------------------------------------------------|

E|--------------------------------------|
B|--15--15--15--15--15--14--14--14--14--|
G|--------------------------------------|
A|--------------------------------------|
E|--------------------------------------|

E|-------------------------------|
B|-------------------------------|
G|--14b--14b--14--12--11h12--11--|
D|-------------------------------|
A|-------------------------------|
E|-------------------------------|

E|------------------------------------|
B|--5/8--7-----5/8--7-----7--7--7-----|
G|----------9----------9--7--7--7-----|
D|------------------------7--7--7-----|
A|------------------------------------|
E|------------------------------------|


E|----------------------------------------|
B|--5/8--7-----5/8--7---------7--7--7-----|
G|----------9----------9--7---7--7--7-----|
D|----------------------------7--7--7-----|
A|----------------------------------------|
E|----------------------------------------|
Tap to rate this tab
 
# A B C D E F G H I J K L M N O P Q R S T U V W X Y Z