Song name
# A B C D E F G H I J K L M N O P Q R S T U V W X Y Z

Siakol - Sa Pagikot Ng Mundo tab

tab by :alay ponsica 
email any comments alay_ponsica@yahoo.com

album:sa pag-ikot ng mundo 

intro:

e|---7-----8-----10-----10-----12-----12-----8-----7----------|
B|-8---10----12-----12------12----10-----10-----8---(4X)--8---|
G|------------------------------------------------------------|
D|------------------------------------------------------------|
A|------------------------------------------------------------|
E|------------------------------------------------------------|

Solo:

e|-----------------------------------------------------------------|
B|------------------------------------------------7-8---8h7----7---|
G|---------5m-4m-5m-5h4m-----4m--5m-7m-9m--------9---9-7---5--7----|
D|-5m-7m-------------------7m--------------------------------------|
A|-----------------------------------------------------------------|
E|-----------------------------------------------------------------|

e|---------------------------------------------------------------|
B|---------------------------------------------------------------|
G|-7h5-45-5h4----4-4h5p4------------------------------------------|
D|-------------7-----------7m-5m-7m------------------------------|
A|---------------------------------------------------------------|
E|---------------------------------------------------------------|

e|-------------------------------------------------------10-8-7-8-8h7-----|
B|------------------------------7-8---8h7---7-8-10-8-7-8---------------10-|
G|--------5m-----4m-5m-7m-9m--------9-------------------------------------|
D|-5m-7m-----7m-----------------------------------------------------------|
A|------------------------------------------------------------------------|
E|------------------------------------------------------------------------|

e|----------------------------------------------------7-8-10-8-7-8-8h7----|
B|-8-7-8-8h7---7----------8-8h7---8-10-10h8---7-8-10------------------10--|
G|-----------9---9-7-5-7--------9-----------9-----------------------------|
D|------------------------------------------------------------------------|
A|------------------------------------------------------------------------|
E|------------------------------------------------------------------------|

e|-8-10-10/12-12/14-15-14-12----------------------------------------------|
B|------------------------------15-13-13h12-------------------------------|
G|-------------------------------------------14-12------------------------|
D|------------------------------------------------------------------------|
A|------------------------------------------------------------------------|
E|------------------------------------------------------------------------|

e|-15-15h13p12------------------------------------------------------------|
B|---------------15--15h13p12-15--15h13p12-15---15h13p12------------------|
G|------------------------------------------------------------------------|
D|------------------------------------------------------------------------|
A|------------------------------------------------------------------------|
E|------------------------------------------------------------------------|

e|------------------------------------------------------------------------|
B|-12-13-13h12------------------12-13-15-13-13h12-------------------------|
G|--------------14-12-11-12-14----------------------14-12-11-12-12-11-12--|
D|------------------------------------------------------------------------|
A|------------------------------------------------------------------------|
E|------------------------------------------------------------------------|

e|------------------------------------------------------------------------|
B|------------7~----------------------------------------------------------|
G|-11-9-11-9--------------------------------------------------------------|
D|------------------------------------------------------------------------|
A|------------------------------------------------------------------------|
E|------------------------------------------------------------------------|

yan lang po thankx!!



Tap to rate this tab
 
# A B C D E F G H I J K L M N O P Q R S T U V W X Y Z