Song name
# A B C D E F G H I J K L M N O P Q R S T U V W X Y Z

Siakol - Walang Hanggang Katapusan Dulo tab

Tabbed by:alay ponchica
Email:alay_slash@yahoo.com
song: walang hanggang katapusan dulo
album: hiwaga
Tuning: standard

solo 1:

e|---------------------------------------------7-8-7--------------|
B|---------------------------------------------7-----10-8-7-8-7---|
G|-------------9h10-9----9-10/12-10-9h10p9-----7------------------|
D|-------10-12--------10------------------10----------------------|
A|-10h12----------------------------------------------------------|
E|----------------------------------------------------------------|

e|----------------------------------------------------------------|
B|---7------------------------------------------------------------|
G|-9--9-7-9-7-------9-10/12-10-9h10p9-------9h10--7h9p7-----------|
D|------------10-12-------------------10-10-------------10--------|
A|----------------------------------------------------------------|
E|----------------------------------------------------------------|
solo 2:

e|-------12/13-15b-12-15-13-12------------------------------------|
B|-10/12-----------12----------15-13-12-13(3x)/-13-12-------------|
G|-----------------12---------------------------------14-12-10----|
D|----------------------------------------------------------------|
A|----------------------------------------------------------------|
E|----------------------------------------------------------------|

e|----------------------------------------------------------------|
B|----------------------------------------------------------------|
G|-12-10-9-10-10h9---9-10-9-10/12(3x)-10-9-9-7-9-10-9-10-10/12----|
D|-----------------12---------------------------------------------|
A|----------------------------------------------------------------|
E|----------------------------------------------------------------|

e|----------------------------------------------------------------|
B|----------------------------------------------------------------|
G|------------9-10-10h9----9-10-10/12-9-10-9h10-10/12-12----------|
D|------10-12-----------12----------------------------------------|
A|-10-12----------------------------------------------------------|
E|----------------------------------------------------------------|

e|----------------------12-15-13-12-13-12-------------------------|
B|----------------------12-------------12-15-13-12-13-------------|
G|-12/14-14/16-17-17-17-12-------------12-------------------------|
D|----------------------------------------------------------------|
A|----------------------------------------------------------------|
E|----------------------------------------------------------------|

e|-------------------------------------------------------------------------|
B|-12----------------------------------------------------------------------|
G|----14-12-10-12-10-9-10-9-7-9-10-12-10-10/14-14/5(slow)-5/7~/14~-5/7(5x)-|
D|-------------------------------------------------------------------------|
A|-------------------------------------------------------------------------|
E|-------------------------------------------------------------------------|

ayan dyan na ang dalawang solo yan lang ibigay ko sa inyo tinatamad na ako 
bigyan ko kayo ng sample sa last beat ng solo 8 yung una tapos hammer nyo sa 7 yan lang antok na ako!!!!

Tap to rate this tab
# A B C D E F G H I J K L M N O P Q R S T U V W X Y Z