Song name
# A B C D E F G H I J K L M N O P Q R S T U V W X Y Z

Siakol - Sige Na tab

song:sige na tuloy pa 
tabs by: alay ponchica
any comments e-mail me @ alay_slash@yahoo.com

solo:

e|-------------------------------------------------------------------|
B|---------------------------------10-10-9-9-10-10-7-----------------|
G|---6-7-6-9-7-7-6-7-6---6-7-9-9-7------------------9-9-7-9-7-6-7-6--|
D|-7-------------------7-------------------------------------------7-|
A|-------------------------------------------------------------------|
E|-------------------------------------------------------------------|

e|------9-9-10-10-9-9----10/12-10-9-10-9------------------------------|
B|-7/10---------------10-----------------12-10-9-10-10-10-10-10-10-10-|
G|--------------------------------------------------------------------|
D|--------------------------------------------------------------------|
A|--------------------------------------------------------------------|
E|--------------------------------------------------------------------|

e|-9b-9b-10b-10b-12b-12b-10b-10b-9b-9b--------------------------------|
B|-------------------------------------------7------------------------|
G|-----------------------------------------9---9-7-7-6-7-6---6-7-6----|
D|-------------------------------------7-7-----------------9-------7--|
A|--------------------------------------------------------------------|
E|--------------------------------------------------------------------|

e|------------------------------------------10/12-12-10-10-9-9-10-10--|
B|-----10-10-9-9-10-10-12-12-10-9-10-9--------------------------------|
G|-9-9---------------------------------11-9---------------------------|
D|--------------------------------------------------------------------|
A|--------------------------------------------------------------------|
E|--------------------------------------------------------------------|

e|--------------------------------------------------------------------|
B|-12-12-10-9-10-9-7-9-10-10-9-9-7-7----------------------------------|
G|-----------------------------------9-7-9-7-6-7-6-4-6-4--------------|
D|-------------------------------------------------------7------------|
A|--------------------------------------------------------------------|
E|--------------------------------------------------------------------|

yan lang enjoy kayo alay ko to sa mga kaibigan ko sA Davao at saka kay
pareng Ramon Magpantay taga kuha ng chords sa siakol!!!
Tap to rate this tab
# A B C D E F G H I J K L M N O P Q R S T U V W X Y Z