Song name
# A B C D E F G H I J K L M N O P Q R S T U V W X Y Z

Siakol - Ikaw Ba Yan tab

Siakol Hiwaga Release 2003 
Ikaw Ba Yan? (Noel Palomo) 

Solo:

e|-9/10-9------9/10-9----------9/10-9-------9/10-9--------------|
B|-------10-----------10--------------10----------10----12b~----|
G|----------9~-----------9-11~-----------9-----------9----------|
D|--------------------------------------------------------------|
A|--------------------------------------------------------------|
E|--------------------------------------------------------------|

e|-9/10-9------9/10-9----------9/10-9-------9/10-9---------------|
B|-------10-----------10--------------10----------10-9/10-10/12~-|
G|----------9~-----------9-11~-----------9-----------------------|
D|---------------------------------------------------------------|
A|---------------------------------------------------------------|
E|---------------------------------------------------------------| 

Outro:

e|-10-9--------10-9----------10-9-----------10-9----10-9-7----9--|
B|------10----------10------------10-12-10-------10--------10----|
G|----------9----------9-11--------------------------------------|
D|---------------------------------------------------------------|
A|---------------------------------------------------------------|
E|---------------------------------------------------------------|

tabs by: alay ponchica
For your comments & suggestions 
Email me at alay_slash@yahoo.com
enjoy mga pinoy!!!
Tap to rate this tab
# A B C D E F G H I J K L M N O P Q R S T U V W X Y Z