Song name
# A B C D E F G H I J K L M N O P Q R S T U V W X Y Z

Siakol - Anak Ng Puta tab

-------------------------------------------------------------------------------
			     Anak ng Puta - Siakol
-------------------------------------------------------------------------------
Tabbed by:Jay Galace
Email: riff_master12@yahoo.com

Tuning:Standard

e|---------------------------------------------------------------------------|
B|-----------------------------------------6/8-6-5h6p5-----------------------|
G|-2-4-4/5-5-5/7-5-4h5p4--------2-4-4/5-5--------------7-7/9-----------------|
D|-----------------------5-5/7-----------------------------------------------|
A|---------------------------------------------------------------------------|
E|---------------------------------------------------------------------------|

e|----------15-13-12-13-12---------------------------------------------------|
B|-----13------------------13-13b-10-10h13-----------------------------------|
G|-/14-------------------------------------10--------------------------------|
D|---------------------------------------------------------------------------|
A|---------------------------------------------------------------------------|
E|---------------------------------------------------------------------------|

e|---------------------------------------------------------------------------|
B|-----------------13-15p13-15p13-15bf---------------------------------------|
G|-----12----12-14-----------------------------------------------------------|
D|-/14----14-----------------------------------------------------------------|
A|---------------------------------------------------------------------------|
E|---------------------------------------------------------------------------|


Eto ung lead ng intro. madali lng to...dont forget to put vibrato.
email nyu ako kng may tanung kyu o may papakapa. 

| /  slide up
| \  slide down
| h  hammer-on
| p  pull-off
| ~  vibrato
| +  harmonic
| x  Mute note
===============================================================================
Tap to rate this tab
# A B C D E F G H I J K L M N O P Q R S T U V W X Y Z