Song name
# A B C D E F G H I J K L M N O P Q R S T U V W X Y Z

Siakol - Biyaheng Impyerno tab

Help us improve GuitareTab! Take a short survey!
 
 
 Song Title:Biyaheng Impyerno
 Artist:Siakol     
  
 Intro: D-B-G-A
 e-----------------------------------------------|
 b-----------------------------------------------|
 g--------7-------4------------------------------|
 d--------x-(5x)--x-(5x)--5-------7--------------|
 a--------5-------2-------x-(5x)--x-(5x)---------|
 e------------------------3-------5--------------|
 Adlib:1 D-B-G-A
 e---------------------8------8------------------------15-13--------------|
 b----------------8/10---8/10---8p6-8/10---------------------------10-----|
 g-----------8h10------------------------10-7-10/12-12-------12-10--------|
 d------8h10--------------------------------------------------------------|
 a-8h10-------------------------------------------------------------------|
 e------------------------------------------------------------------------|
 
 e----------------13-------13----------------------------------15-13------|
 b----------13/15----13/15----15p13-15------------------------------------|
 g-12/14-14----------------------------12/14-14-------10/12-12------------|
 d----------------------------------------------15-12---------------------|
 a------------------------------------------------------------------------|
 e------------------------------------------------------------------------|
 
 e-------------|
 b-------10v---|
 g-10-12-------|
 d-------------|
 Adlib:2 D-B-G-A
 e-------13-------13-----------------------------------15/17-15-13-12-----|
 b-13/15----13/15----15p13-15---------------------------------------------|
 g-----------------------------12/14-14-------10/12-12----------------14--|  
 d--------------------------------------15-12-----------------------------|
 a------------------------------------------------------------------------|
 e------------------------------------------------------------------------|
 
 e------------------------------------------------------------------------|
 b-8/10-10-8/7-7-----------------7/8-8/10-10v-----------------------------|
 g---------------7/4-4-6/7-7/9-9------------------------------------------|
 d------------------------------------------------------------------------|
 a------------------------------------------------------------------------|
 e------------------------------------------------------------------------|
 Last Chorus:
 e-------------------------------------------|
 b-8/10-8/7-7-----------------7/8-8/10-10v---|
 g------------7/4-4-6/7-7/9-9----------------|(2X)
 d-------------------------------------------|
 a-------------------------------------------|
 e-------------------------------------------|
 
 madali lang kunin yung outro katulad din nung nasa adlib 
 add nyo ko friendster j_lipio@yahoo.com
 bsta try nyo to pm me pag maganda or mail me
 basta un na un


Related for Biyaheng Impyerno tab