Song name
# A B C D E F G H I J K L M N O P Q R S T U V W X Y Z

Siakol - Larawan tab

album:sa pag-ikot ng mundo
tab by : alay ponsica
				
intro: A  C#m   D   Dm (2x)

Verse I:
   A          
dilim ng gabi
   C#m
nakabalot sa paligid
   D
bituin sa langit
   Dm
parang matang nagmamasid
   A
kamay ng orasan
   C#m
diba nahihirapan
   D
masasayang nakaraan
   Dm
makikita sa larawan

A      C#m      D      Dm

Verse II:

   A
Mundong matahimik
   C#m
nabibingi ako
   D
hanging malamig
    Dm
pumasok saking ulot
   A 
bilog na buwan
   C#m
paglakbayin ang aking isip
    D
sa aking pagtulog 
    Dm
may magandang panaginip

Chorus:
   A
naririnig mo ba ako?
   C#m
kasama ka sa aking awit
   D
naririnig mo ba ako?
   Dm
heto ako bat di ka lumapit...
        
(do the chords when the solo start)
Solo:

e--------------------------------------------------------------------------|
b--------------------------------------------------------------------------|
g--------------------------------------------------------------------------|
d-9------------------------9--------------------------9--------------------|
a--10-10-12----------12-10---10-10-12------------------10-10-12------------|
e-----------9-10-10-9-----------------9-10-12-12-10-9----------9-10-12-12--|

e--------------------------------------------------------------------------|
b--------------------------------------------------------------------------|
g----------------------------7-9-------------------------------------------|
d-------------------------------7-6-7-6-7-7/9-6-7-9------------------------|
a------------------12-10-9-10----------------------10-10-9-10-12-10-9-10-12|
e-9-10-10-10-9-10-9---------------------------------------------9----------|

e--------------------------------------------------------------------------|
b--------------------------------------------------------------------------|
g-----------------------------------------------------------7-9------------|
d--------------------------------------------------------------7-6-7-6-----|
a------------------------15-17-17-17-15-14-15-14-12-14-12-10---------------|
e-9-10-9-10-10-10/17-17-17-------------------------------------------------|


e--------------------------------------------------------------------------|
b--------------------------------------------------------------------------|
g--------------------------------------------------------------------------|
d-7-7/9--------------------------------------------------------------------|
a------10-10-10-10-9-10-12------------------------17-15-14-15-15-14-15-12--|
e-------------------------9-10-10-9-10-12-12-12/17-------------------------|

e---------------------------------------------------------------------------|
b--------------------------------------------------------------------------|
g--------------------------------------------------------------------------|
d-14--------------14-------------------------------------------------------|
a--15-14-12-14-12---12-10-9-10----12-12/14-15-14-12-15-12-15-14-15-14------|
e-----------------------------10-9-----------------------------------------|

e--------------------------------------------------------------------------|
b--------------------------------------------------------------------------|
g--------------------------------------------------------------------------|
d--------------------------------------------------------------------------|
a-12-12/14-15-17-15-14-15-15h14-12-12/14-10-12-----------------------8/10--|
e----------------------------------------------9-10-10-10/12-12-12-12------|

-------------------5-------------------------------------------------------|
b------------3/5-----------------------------------------------------------|
g-------5/7----------------------------------------------------------------|
d--7/9---------------------------------------------------------------------|
a--------------------------------------------------------------------------|
e--------------------------------------------------------------------------|

yan lang po makinig kayo sa music para makuha nyo ang solo

yan lang po ang guitar chords nya at saka solo...

kumusta kayo lahat dyan sa davao rate nyo naman  

email me: alay_slash@yahoo.com
if may mali po tnx
Tap to rate this tab
# A B C D E F G H I J K L M N O P Q R S T U V W X Y Z