Song name
# A B C D E F G H I J K L M N O P Q R S T U V W X Y Z

Siakol - Inday tab

Inday - Pantasya
tab by: alay
any comments e-mail me @ alay_slash@yahoo.com

Intro: G Am C D 2x
Verse: G Am C D


Solo:
e---------------------------------------------------------------------|
b------------------------------------------------------7-7-8-8-10-10--|
g-----7-7-5-5-4-4-5-5-7-7-5-5-4-4----------7-7-5-5-4-4----------------|
d-4-4-----------------------------5pause-5----------------------------|
a---------------------------------------------------------------------|
e---------------------------------------------------------------------|

e-----10-10-8-8-7-7-8-8-7-7-7-8-7-10-10-----------------------------------|
b-8-8-----------------------------------8-7-8-8-8-8-7-7-7-5-5-5-----------|
g---------------------------------------------------------------7-7-5-5---|
d-------------------------------------------------------------------------|
a-------------------------------------------------------------------------|
e-------------------------------------------------------------------------|

e----------------------------------------------------------------------------|
b-----------------5-7-7-7-8--------------------------------------------------|
g-7-4-5-7-5-4-5-7------------------------------------------------------------|
d----------------------------------------------------------------------------|
a----------------------------------------------------------------------------|
e----------------------------------------------------------------------------|

ito para sa inyo to!!
thankx ialay ko to kay vanessa ng davao!!
Tap to rate this tab
 
# A B C D E F G H I J K L M N O P Q R S T U V W X Y Z