Song name
# A B C D E F G H I J K L M N O P Q R S T U V W X Y Z

Siakol - Teka Lang tab

song title:	teka lang
band/artist:	siakol
tuning:		standard
transcribed by:	AHMED UTTO TADTAGAN
		Notre Dame Inoversity
		[when reggae meets emo]

	
	
***[intro1]
	D		A		  Bm		    G
e |--0--0--0------:------------5-----:----------------:-----3--3------|
a |---3--3--------:----2-2s3-5---(0)-:----3--3--3-----:------0--3-----|
G |----2--2-------:-----2------------:-----4--4---(0)-:-------0-------| 2x
D |---------------:------------------:------4--4------:---------------|
A |-----------(0)-:-0----------------:--2-------------:---------------|
E |---------------:------------------:----------------:---3-----------|

***[intro2]
Guitar1
e |-----------------:------------------:---------------:----------------|
a |-----------------:------------------:---------------:----------------|
G |---77--77--77----:------------------:---44--44-44---:----------------|
D |---77--77--77----:----77--77--77----:---44--44-44---:---55--55--55---| 
A |---55--55--55----:----77--77--77----:---22--22-22---:---55--55--55---|
E |-----------------:----55--55--55----:---------------:---33--33--33---|

Guitar2 (with effects)
e |--10\9--9/10-10--:-10\9--9/10-10s12-:-10\9--9/10-10-:----------------|
a |-----------------:------------------:---------------:----------------|
G |-----------------:------------------:---------------:----------------|
D |-----------------:------------------:---------------:---55--55--55---| 2x
A |-----------------:------------------:---------------:---55--55--55---|
E |-----------------:------------------:---------------:---33--33--33---|


***[VERSE1-2]
*Note: paulit-ulit lng to.

	D		A		  Bm		    G
e|-------2----------:---------0------5----:---------2-------:--------3-------|
a|---------3--------:------------2--------:-------3---------:------0---------|
G|----(2)-----------:---------------------:-----------------:----------------|
D|--0---------------:----(2)--------------:----4------------:----------------|
A|------------------:--0------------------:--2--------------:-----2----------|
E|------------------:---------------------:-----------------:---3------------|
teka lang wag kang lumayo 		      kapag ika'y namiss wala kong kausap..



***[BRIDGE]
	A		G
e |--------------:--------------------|
a |--------------:--------------------|
G |--------------:--------------------|  A ang last chords dito
D |----77777777--:---55555555---------|    bago koro
A |----77777777--:---55555555---------|
E |----55555555--:---33333333---------|



***[CHORUS]
	D-A-Bm-G-A
*Note: pareho lang sa verse ang plucking ng 1st chorus.
       lagyan nyo lang ng A after G.

sige, kung ayaw mong magpaawat
salamat na lng sa lahat
sana ika'y mag-ingat.
sige, wala ng dapat pag-usapan
kung ayaw ay may dahilan
at kung gusto ay merong paraan

[after chorus, repeat lng yung second intro]


[VERSE3-3]

teka lang, wag kang mang-iwan
kapag ika'y lumisan
titingin lng sa ulap hanggang
sa ulo ay masiraan

teka lang, wag kang magpasya
kapag ika'y alaw's na
guguhong pangarap,
isa na kong taong grasa


***[BRIDGE]
	A-G (A)
***[CHORUS]
	D-A-Bm-G-A (strum na toh lahat)

***[SOLO]
e |-----------------------------------|
a |-----------------------5-----------|
G |---7-7-7p5-7-5-7-5-7-5---7---------|  3x
D |-----------------------------------|
A |-----------------------------------|
E |-----------------------------------|

e |---------------------------14~---------|
a |------------------------------15~------|
G |---7/12--12121212121212----------------|
D |---------------------------------------|
A |---------------------------------------|
E |---------------------------------------|

e |-----------------------------------|
a |-----------------------5-----------|
G |---7-7-7p5-7-5-7-5-7-5---7---------|  3x
D |-----------------------------------|
A |-----------------------------------|
E |-----------------------------------|

e |----------------------------------------------|
a |----------------------------------------------|
G |---7/12--12121212121212--5h7-9-10-11-12--14~--| (di ako cgurado dito)
D |----------------------------------------------|
A |----------------------------------------------|
E |----------------------------------------------|


***[BRIDGE]
	A-G (A)

***[CHORUS] 3x
	D-A-Bm-G-A (strum na toh lahat)


***[OUTRO]
	-same as the intro2


eto ung whole lyrics:

[verse1]
teka lang, wag kang umalis
kapag ika'y namiss
wala kong kausap
laway ay mapapanis.

teka lang, wag kang lalayo
kapag ika'y nagtago
sa kahahanap , di na makakaligo

[bridge]
mapapabayaan na ang sarile ko
kaya wah ng ituloy ang binabalak mo
alamu naman na hawak2 mo ang aking buhay
kung bibitawan mo ko,
masahol pa ako sa, isang patay

[koro]
sige, kung ayaw mong magpaawat
salamat na lng sa lahat
sana ika'y mag-ingat.
sige, wala ng dapat pag-usapan
kung ayaw ay may dahilan
at kung gusto ay merong paraan

[repeat intro2]

teka lang, wag kang mang-iwan
kapag ika'y lumisan
titingin lng sa ulap hanggang
sa ulo ay masiraan

teka lang, wag kang magpasya
kapag ika'y alaw's na
guguhong pangarap,
isa na kong taong grasa

[bridge]
[koro]
[adlib]
[bridge]
[koro] 3x
[outro] 2x


-----------------------------------------------------------------------------
comments? suggestions?
mhedlux04@yahoo.com (friendster/myspace)
09065097530
Tap to rate this tab
# A B C D E F G H I J K L M N O P Q R S T U V W X Y Z