Song name
# A B C D E F G H I J K L M N O P Q R S T U V W X Y Z

Sicc Pu - The Funky Song tab

Help us improve GuitareTab! Take a short survey!
------------------------------------------
------------------------------------------
-------6-6-------5-5-------6-6-------9----
-------6-6-------5-5-------6-6-------9----
-------4-4-------3-3-------4-4-------7----
-0-3-4-----0-3-4-----0-3-4-----0-3-4------
                                     ^Let Ring 

-------------------------------------------
-------------------------------------------
-------5-5-------7-7-------5-5-------------
-5-5-5-5-5-5-5-5-7-7-5-5-5-5-5-3-----------
-5-5-5-3-3-5-5-5-5-5-5-5-5-3-3-3-----------
-3-3-3-----3-3-3-----3-3-3-----1-----------
                              ^Let Ring

------------------------------------------------
------------------------------------------------
-------5-5-5-------4-4-4-------3-3-3-------9-9-9
-5-5-5-5-5-5-5-5-5-4-4-4-5-5-5-3-3-3-5-5-5-9-9-9
-5-5-5-3-3-3-5-5-5-2-2-2-5-5-5-1-1-1-5-5-5-7-7-7
-3-3-3-------3-3-3-------3-3-3-------3-3-3------
 POWER CHORDS                                                                 

-------------------------------------------------
-------------------------------------------------
-------------------------------------------------
-------------------------------------------------
-------4-4-------3-3-------4-4-------4-5-4-------
-0-3-4-----0-3-4-----0-3-4-----0-3-4-------------
Related for The Funky Song tab