Song name
# A B C D E F G H I J K L M N O P Q R S T U V W X Y Z

Sick Of Change - Scarlet tab

------------------------------------------------------------------------------- 
                      SCARLET - Sick Of Change 
------------------------------------------------------------------------------- 

intro 
e|------------------------------------------------------ 
B|------------------------------------------------------ 
G|------------------------------------------------------ 
D|-----5---3---2----3-------------5---5----------------- 
A|--00---0---0---0----2h3p2----22---2----00--3-0-3------ 
E|------------------------------------------------------ 

e|------------------------------------------------------ 
B|------------------------------------------------------ 
G|---------------------------------------55555555------- 
D|----5---3---2----3-----------2---0---2---------------- 
A|--------------------2h3p2--------------33333333------- 
E|-11---1---1---1-----------11---1---1------------------ 

verse(palm mute when necessary) 
e|------------------------------------------------------ 
B|------------------------------------------------------ 
G|-----5------------------------------------------------ 
D|--7--5--3--------------------------------------------- 
A|--7--3--3--------------------------------------------- 
E|--5-----1--------------------------------------------- 

chorus 
e|------------------------------------------------------ 
B|------------------------------------------------------ 
G|-5-5-------------------------------------------------- 
D|-5-5--3--5-------------------------------------------- 
A|-3-2--3--5-------------------------------------------- 
E|------1--3-------------------------------------------- 

interlude(palm mute when necessary)(varies slightly too) 
e|------------------------------------------------------ 
B|------------------------------------------------------ 
G|-----5------9------5---------------------------------- 
D|--7--5--3------7---5--3---55-77-33-55----------------- 
A|--7--3--3---7--7---3--3------------------------------- 
E|--5-----1------5------1------------------------------- 

interlude 2 
e|------------------------------------------------------ 
B|------------------------------------------------------ 
G|----------------0------------------------------------- 
D|----2-----0-----------2------------------------------- 
A|-00----33--------------------------------------------- 
E|-------------11----11--------------------------------- 

prebass solo 
e|------------------------------------------------------ 
B|------------------------------------------------------ 
G|------------5----------------------------------------- 
D|----7---5---5--3-------------------------------------- 
A|----7---5---3--3-------------------------------------- 
E|----5---3------1-------------------------------------- 

after solo 
e|--------------|--------------------------------------- 
B|---(3x)-------|--------(1x)--------------------------- 
G|-----5--------|------5--5---5------------------------- 
D|--7--5--3--3--|--7---5--5-3-5-3----------------------- 
A|--7--3--3--3--|--7---3--3-3-3-3----------------------- 
E|--5-----1--1--|--5--------1---1----------------------- 

e|--------0----------|---------------------------------- 
B|--3----------------|---------------------------------- 
G|-----5-----5-4-5---|---------------------------------- 
D|-------------------|-7-------------------------------- 
A|-------------------|-7-------------------------------- 
E|-------------------|-5-------------------------------- 

-------------------------------------------------------------------------------
Tap to rate this tab
 
# A B C D E F G H I J K L M N O P Q R S T U V W X Y Z