Song name
# A B C D E F G H I J K L M N O P Q R S T U V W X Y Z

Sick Of Change - Scarlet Acoustic tab

           Sick Of Change-Scarlet(Acoustic)

These are the chords used through the entire song.
These are pretty accurate,I was able to see them once 
and they played this song also and so that's my
reference.
     Verse
e|--0---0--0--3--------------------------------|
B|--0---1--1--3--------------------------------|
G|--0---0--2--0--------------------------------|
D|--2---2--3--0--------------------------------|
A|--2---3--3--2--------------------------------|
E|--0---------3--------------------------------|

     Chorus
e|--0--3--0--3---------------------------------|
B|--1--3--1--3---------------------------------|
G|--0--0--2--0---------------------------------|
D|--2--0--3--0---------------------------------|
A|--3--2--3--2---------------------------------|
E|-----3-----3---------------------------------|

Enjoy
Tap to rate this tab
 
# A B C D E F G H I J K L M N O P Q R S T U V W X Y Z