Song name
# A B C D E F G H I J K L M N O P Q R S T U V W X Y Z

Sick Of Change - Holding Poison tab

------------------------------------------------------------------------------- 
                  HOLDING POISON - Sick of Change 
------------------------------------------------------------------------------- 

By:Biel Garcia 

INTRO: 
e|---------------------|---------------------|-------------------------------| 
B|---------------------|---------------------|-------------------------------| 
G|---------------------|---------------------|---lead guitar-----------------| 
D|-9--7--9-7-9-7-4-2---|-4-4-4--7-7-7--2-2-2-|-------------------------------| 
A|-9--7--9-7-9-7-4-2---|-4-4-4--7-7-7--2-2-2-|---5-4-2-4-5-4-7-2-4-----------| 
E|-7--5--7-5-7-5-2-0---|-2-2-2--5-5-5--0-0-0-|-------------------------------| 

Verse: 
e|---------------------------------------------------------------------------| 
B|---------------------------------------------------------------------------| 
G|---------------------------------------------------------------------------| 
D|-9-7-9-7-9-7--4-4--2-2-----------------------------------------------------| 
A|-9-7-9-7-9-7--4-4--2-2---------2x------------------------------------------| 
E|-7-5-7-5-7-5--2-2--0-0-----------------------------------------------------| 

CHORUS 
e|---------------------|------------------------------------------------------| 
B|---------------------|------------------------------------------------------| 
G|------7-7------------|------6-6---------------------------------------------| 
D|-4-4--7-7--7-7--2-2--|-4-4--6-6--2-2----------------------------------------| 
A|-4-4--5-5--7-7--2-2--|-4-4--4-4--2-2----------------------------------------| 
E|-2-2-------5-5--0-0--|-2-2-------0-0----------------------------------------| 

Interlude 
e|---------------------------------------------------------------------------| 
B|---------------------------------------------------------------------------| 
G|---------------------------------------------------------------------------| 
D|-7-7--4-4--7-7--2-2--------------------------------------------------------| 
A|-7-7--4-4--7-7--2-2--------------------------------------------------------| 
E|-5-5--2-2--5-5--0-0--------------------------------------------------------| 

BRIDGE 
e|---------------------------------------------------------------------------| 
B|---------------------------------------------------------------------------| 
G|------------7-7------------------------------------------------------------| 
D|--4-4--2-2--7-7--2-2-------------------------------------------------------| 
A|--4-4--2-2--5-5--2-2-------------------------------------------------------| 
E|--2-2--0-0-------0-0-------------------------------------------------------| 

-------------------------------------------------------------------------------
Tap to rate this tab
 
# A B C D E F G H I J K L M N O P Q R S T U V W X Y Z