Song name
# A B C D E F G H I J K L M N O P Q R S T U V W X Y Z

Sick Of It All - My Life tab

------------------------------------------------------------------------------- 
                          MY LIFE - SICK OF IT ALL 
------------------------------------------------------------------------------- 

By:Jon Wong: jkwong@pixi.com 

INTRO & VERSE 
e|--------------------------------------------------------------------| 
B|--------------------------------------------------------------------| 
G|--------------------------------------------------------------------| 
D|-9-9-9-------9-9-9--------9-9-9-------------------------------------| 
A|-7-7-7-9-9-9-7-7-7--9-9-9-7-7-7-9-9-9-------------------------------| 
E|-------7-7-7--------7-7-7-------7-7-7-------------------------------| 

CHORUS: 
e|--------------------------------------------------------------------| 
B|--------------------------------------------------------------------| 
G|--------------------------------------------------------------------| 
D|-7-7-7--------------5-5-5-------------------------------------------| 
A|-5-5-5--5-5-5-7-7-7-3-3-3-------------------------------------------| 
E|--------3-3-3-5-5-5-------------------------------------------------| 

=============================================================================
Tap to rate this tab
# A B C D E F G H I J K L M N O P Q R S T U V W X Y Z