Guitaretab - guitar tabs
Song name
# A B C D E F G H I J K L M N O P Q R S T U V W X Y Z

Sick Of It All - Ruin tab

By: Lautaro Mijalovsky - lauhxcpunk@hotmail.com

Sick Of It All - Ruin Tab

The result of centuries of neglect...
e|--------------------------------------------------------------------| 
B|--------------------------------------------------------------------| 
G|-------------------------------------------5-5-5--8-8-8-------------| 
D|-5-5-5--2-2-2--8-8-8--5-5-5--5-5-5--2-2-2--5-5-5--8-8-8-------------| 
A|-5-5-5--2-2-2--6-6-6--3-3-3--5-5-5--2-2-2--3-3-3--6-6-6-------------| 
E|-3-3-3--0-0-0--6-6-6--3-3-3--3-3-3--0-0-0---------------------------| 

And the pain gets worse...
e|--------------------------------------------------------------------| 
B|--------------------------------------------------------------------| 
G|--------5-5-5--8-8-8----------------5-5-5--8-8-8--7-----------------| 
D|-5-5-5--5-5-5--8-8-8--7-7-7--5-5-5--5-5-5--8-8-8--7-----------------| 
A|-5-5-5--3-3-3--6-6-6--7-7-7--5-5-5--3-3-3--6-6-6--5-----------------| 
E|-3-3-3----------------5-5-5--3-3-3----------------------------------| 

It's the world living with a parasite...
e|--------------------------------------------------------------------| 
B|--------------------------------------------------------------------| 
G|----------------------------------5-7----------------8-8-8--7-7-7---| 
D|-8-7--5-5-5--7-7-7--3-3-3--6-6-6--5-7--8-8-8--4-4-4--8-8-8--7-7-7---|
A|-8-7--5-5-5--5-5-5--3-3-3--6-6-6--3-5--6-6-6--4-4-4--6-6-6--5-5-5---| 
E|-6-5--3-3-3--5-5-5--1-1-1--4-4-4-------6-6-6--2-2-2-----------------| 

It's the world living with it's own infectious disease..
e|--------------------------------------------------------------------| 
B|--------------------------------------------------------------------| 
G|----------------------------------5-7----------------8-8-8----------| 
D|-8-7--5-5-5--7-7-7--3-3-3--6-6-6--5-7--8-8-8--4-4-4--8-8-8----------|
A|-8-7--5-5-5--5-5-5--3-3-3--6-6-6--3-5--6-6-6--4-4-4--6-6-6----------| 
E|-6-5--3-3-3--5-5-5--1-1-1--4-4-4-------6-6-6--2-2-2-----------------| 

Ruin is what you wanted...
e|--------------------------------------------------------------------| 
B|--------------------------------------------------------------------| 
G|--------------------------------------------------------------------| 
D|-7-7-7-7-7-7--x--7-7-7-7-7-7--x--7-7-7-7-7-7--x--7-7-7-7-7--x-------|
A|-5-5-5-5-5-5--x--5-5-5-5-5-5--x--5-5-5-5-5-5--x--5-5-5-5-5--x-------| 
E|-5-5-5-5-5-5--x--5-5-5-5-5-5--x--5-5-5-5-5-5--x--5-5-5-5-5--x-------| 

Self centered beings play out self centered lives...
e|--------------------------------------------------------------------| 
B|--------------------------------------------------------------------| 
G|-------------------------------------------5-5-5--8-8-8-------------| 
D|-5-5-5--2-2-2--8-8-8--5-5-5--5-5-5--2-2-2--5-5-5--8-8-8-------------| 
A|-5-5-5--2-2-2--6-6-6--3-3-3--5-5-5--2-2-2--3-3-3--6-6-6-------------| 
E|-3-3-3--0-0-0--6-6-6--3-3-3--3-3-3--0-0-0---------------------------| 
[ Tab from: http://www.guitaretab.com/s/sick-of-it-all/149666.html ]
And the blame is passed round when the death throws sound...
e|--------------------------------------------------------------------| 
B|--------------------------------------------------------------------| 
G|--------5-5-5--8-8-8----------------5-5-5--8-8-8--7-----------------| 
D|-5-5-5--5-5-5--8-8-8--7-7-7--5-5-5--5-5-5--8-8-8--7-----------------| 
A|-5-5-5--3-3-3--6-6-6--7-7-7--5-5-5--3-3-3--6-6-6--5-----------------| 
E|-3-3-3----------------5-5-5--3-3-3----------------------------------| 

It's the world living with a parasite...
e|--------------------------------------------------------------------| 
B|--------------------------------------------------------------------| 
G|----------------------------------5-7----------------8-8-8--7-7-7---| 
D|-8-7--5-5-5--7-7-7--3-3-3--6-6-6--5-7--8-8-8--4-4-4--8-8-8--7-7-7---|
A|-8-7--5-5-5--5-5-5--3-3-3--6-6-6--3-5--6-6-6--4-4-4--6-6-6--5-5-5---| 
E|-6-5--3-3-3--5-5-5--1-1-1--4-4-4-------6-6-6--2-2-2-----------------| 

It's the world living with it's own infectious disease...
e|--------------------------------------------------------------------| 
B|--------------------------------------------------------------------| 
G|----------------------------------5-7----------------8-8-8----------| 
D|-8-7--5-5-5--7-7-7--3-3-3--6-6-6--5-7--8-8-8--4-4-4--8-8-8----------|
A|-8-7--5-5-5--5-5-5--3-3-3--6-6-6--3-5--6-6-6--4-4-4--6-6-6----------| 
E|-6-5--3-3-3--5-5-5--1-1-1--4-4-4-------6-6-6--2-2-2-----------------|

Ruin is what you wanted, ruin is what you get...
e|--------------------------------------------------------------------| 
B|--------------------------------------------------------------------| 
G|--------------------------------------------------------------------| 
D|-7-7-7-7-7-7--x--7-7-7-7-7-7--x-------------------------------------|
A|-5-5-5-5-5-5--x--5-5-5-5-5-5--x-------------------------------------| 
E|-5-5-5-5-5-5--x--5-5-5-5-5-5--x-------------------------------------| 

Ruin is what you worked towards every single day... 
e|--------------------------------------------------------------------| 
B|--------------------------------------------------------------------| 
G|--------------------------------------------------------------------| 
D|-7-7-7-7-7-7--x--7-7-7-7-7-7--x--11-11-11-11-11---------------------|
A|-5-5-5-5-5-5--x--5-5-5-5-5-5--x--9--9--9--9--9----------------------| 
E|-5-5-5-5-5-5--x--5-5-5-5-5-5--x--9--9--9--9--9----------------------|  

Ruin, ruin, ruin, ruin...
e|--------------------------------------------------------------------| 
B|--------------------------------------------------------------------| 
G|--------------------------------------------------------------------| 
D|-7-7-7-7-x-x-x-8------7-7-7-8--11-11-11-11--------------------------|
A|-5-5-5-5-x-x-x-6------5-5-5-6--9--9--9--9---------------------------| 
E|-5-5-5-5-x-x-x-6--x3--5-5-5-6--9--9--9--9---------------------------|

Ruin, ruin, ruin, ruin...
e|--------------------------------------------------------------------| 
B|--------------------------------------------------------------------| 
G|--------------------------------------------------------------------| 
D|-7-7-7-7-x-x-x-8------7-7-7-8--11-11-11-----------------------------|
A|-5-5-5-5-x-x-x-6------5-5-5-6--9--9--9------------------------------| 
E|-5-5-5-5-x-x-x-6--x3--5-5-5-6--9--9--9------------------------------|

End:
e|--------------------------------------------------------------------| 
B|--------------------------------------------------------------------| 
G|--------------------------------------------------------------------| 
D|-7-7-7-7--8-8-------------------------------------------------------|
A|-5-5-5-5--6-6-------------------------------------------------------| 
E|-5-5-5-5--6-6-------------------------------------------------------|

Related for Ruin tab
Advertisement will be closed in 10 seconds