Song name
# A B C D E F G H I J K L M N O P Q R S T U V W X Y Z

Sick Of It All - Borstal Breakout tab

-------------------------------------------------------------------------------
			 Borstal Breakout - Sick Of It All
-------------------------------------------------------------------------------
Tabbed by: Omar Garcia
Email: ravage.cramoisi@gmail.com

Tuning: Standar

pm = Palm Mute
+ = Harmonic
XsY = Slide X note to Y note

Performed originally by Sham 69
Listen to the song to get the rhythm


Intro
e|----------------------------|
B|----------------------------|
G|----------9-------------9---|
D|-7s999999-9-9--7s999999-9-9-|
A|-7s999999-7-9--7s999999-7-9-|
E|-5s777777---7--5s777777---7-|

Verse
e|---------------------------------------------------------------------|
B|---------------------------------------------------------------------|
G|-------------------999999-8s99999---------888888-999999----------9---|
D|-7s999999-7s999999-999999-8s99999-7s99999-888888-999999-7s999999-9-9-|
A|-7s999999-7s999999-777777-6s77777-7s99999-666666-777777-7s999999-7-9-|
E|-5s777777-5s777777----------------5s77777---------------5s777777---7-|
pm   ......   ......                  .....                 ......

I'm sitting in this cell for something I didn't do
And all I can think of is baby I think of you
Don't worry baby coming back for you

Chorus
         x3
e|-----------------|----------------|----------------------------|
B|-----------------|----------------|----------------------------|
G|-------9---------|--------9-----9-|------------------------9---|
D|-99999-9-9-9-7-8-|-999999-9-9-9-9-|-7s999999-9-9--7s999999-9-9-|
A|-99999-7-9-9-7-8-|-999999-7-9-9-7-|-7s999999-7-9--7s999999-7-9-|
E|-77777---7-7-5-6-|-777777---7-7---|-5s777777---7--5s777777---7-|

Gonna be a borstal breakout!
Gonna be a borstal breakout!
Gonna be a borstal breakout!
Gonna be a borstal breakout!

Verse
e|---------------------------------------------------------------------|
B|---------------------------------------------------------------------|
G|-------------------999999-8s99999---------888888-999999----------9---|
D|-7s999999-7s999999-999999-8s99999-7s99999-888888-999999-7s999999-9-9-|
A|-7s999999-7s999999-777777-6s77777-7s99999-666666-777777-7s999999-7-9-|
E|-5s777777-5s777777----------------5s77777---------------5s777777---7-|
pm   ......   ......                  .....                 ......

Now I've got the chance I don't care about what I do
When I done them things I done them just for you
And now I'm getting out coming back for you

Chorus
         x3
e|-----------------|----------------|
B|-----------------|----------------|
G|-------9---------|--------9-----9-|
D|-99999-9-9-9-7-8-|-999999-9-9-9-9-|
A|-99999-7-9-9-7-8-|-999999-7-9-9-7-|
E|-77777---7-7-5-6-|-777777---7-7---|

Gonna be a borstal breakout!
Gonna be a borstal breakout!
Gonna be a borstal breakout!
Gonna be a borstal breakout!

Bridge
e|---------------------------------------------------------------------------|
B|---------------------------------------------------------------------------|
G|---------------------------------------------------------------------------|
D|-99999-999999-99999-999999-22222-222222-99999-99999-22222-222222-999999999-|
A|-99999-999999-99999-999999-22222-222222-99999-99999-22222-222222-999999999-|
E|-77777-777777-77777-777777-22222-222222-77777-77777-22222-222222-777777777-|
   +++++ ++++++ +++++ ++++++ +++++ ++++++ +++++ +++++ +++++ ++++++

Chorus
         x3
e|-----------------|----------------|----------------------------|
B|-----------------|----------------|----------------------------|
G|-------9---------|--------9-----9-|------------------------9---|
D|-99999-9-9-9-7-8-|-999999-9-9-9-9-|-7s999999-9-9--7s999999-9-9-|
A|-99999-7-9-9-7-8-|-999999-7-9-9-7-|-7s999999-7-9--7s999999-7-9-|
E|-77777---7-7-5-6-|-777777---7-7---|-5s777777---7--5s777777---7-|

Gonna be a borstal breakout!
Gonna be a borstal breakout!
Gonna be a borstal breakout!
Gonna be a borstal breakout!

Verse
e|---------------------------------------------------------------------|
B|---------------------------------------------------------------------|
G|-------------------999999-8s99999---------888888-999999----------9---|
D|-7s999999-7s999999-999999-8s99999-7s99999-888888-999999-7s999999-9-9-|
A|-7s999999-7s999999-777777-6s77777-7s99999-666666-777777-7s999999-7-9-|
E|-5s777777-5s777777----------------5s77777---------------5s777777---7-|
pm   ......   ......                  .....                 ......

Well now I'm over the wall I'm nearly home
I'm coming through that door coming back to you
Now I'm nearly home nearly back for you

Chorus/End
         x7
e|-----------------|--------------|
B|-----------------|--------------|
G|-------9---------|--------9-----|
D|-99999-9-9-9-7-8-|-999999-9-7-9-|
A|-99999-7-9-9-7-8-|-999999-7-7-9-|
E|-77777---7-7-5-6-|-777777---5-7-|

Gonna be a borstal breakout!
Gonna be a borstal breakout!
Gonna be a borstal breakout!
Gonna be a borstal breakout!
Gonna be a borstal breakout!
Gonna be a borstal breakout!
Gonna be a borstal breakout!
Gonna be a borstal break-out!
===============================================================================
Tap to rate this tab
 
# A B C D E F G H I J K L M N O P Q R S T U V W X Y Z