Song name
# A B C D E F G H I J K L M N O P Q R S T U V W X Y Z

Sick Of It All - Working Class Kids tab

-------------------------------------------------------------------------------
			     SONG NAME - Band Name
-------------------------------------------------------------------------------
Tabbed by: blaisetheslayer
Email:

Tuning: standard

Intro (Play it twice)
e|-----------------------------------------------------------------------------|
B|-----------------------------------------------------------------------------|
G|------------3~~~~~-----------------------------------------------------------|
D|5-5-5-5-555-3~~~~~-----------------------------------------------------------|
A|5-5-5-5-555-1~~~~~-----------------------------------------------------------|
E|3-3-3-3-333------------------------------------------------------------------|

Verse (4x Last time, play the final chord four times)
e|---------------------------------------------------------------------------|
B|---------------------------------------------------------------------------|
G|------------3~~~~----------------------------------------------------------|
D|5-5-5-5-555-3~~~~----------------------------------------------------------|
A|5-5-5-5-555-1~~~~----------------------------------------------------------|
E|3-3-3-3-333----------------------------------------------------------------|

Chorus (4x)
e|----------------------------------------------------------------------------|
B|----------------------------------------------------------------------------|
G|5-5-5-5-3-3-3-3-------------------------------------------------------------|
D|5-5-5-5-3-3-3-3-5-5-5-5-5-5-5-5---------------------------------------------|
A|3-3-3-3-1-1-1-1-5-5-5-5-5-5-5-5---------------------------------------------|
E|----------------3-3-3-3-3-3-3-3---------------------------------------------|

At the end of the chorus play
e|---------------------------------------------------------------------------|
B|---------------------------------------------------------------------------|
G|---------------------------------------------------------------------------|
D|3-4------------------------------------------------------------------------|
A|3-4------------------------------------------------------------------------|
E|1-2------------------------------------------------------------------------|
and go back to the verse riff

Breakdown(Repeat until end)
e|----------------------------------------------------------------------------|
B|----------------------------------------------------------------------------|
G|----------------------------------------------------------------------------|
D|5-5-555-555-3-4-------------------------------------------------------------|
A|5-5-555-555-3-4-------------------------------------------------------------|
E|3-3-333-333-1-2-------------------------------------------------------------|
Tap to rate this tab
# A B C D E F G H I J K L M N O P Q R S T U V W X Y Z